» » »

Molotov, Hit Me Tabs (ver.1)

Artists:  A B C D E F G H I J K L M N O P Q R S T U V W X Y Z # 

Hit Me Tabs (ver.1)

Molotov Tabs
 Rating:
4/5 (4 votes)
Hit Me lessons Tabs too difficult? Try these video lessons and learn fast
                Intro:

1|----5--------5--------5--------0----------------|
2|-------6--------6--------0-----------0-----0----|
3|-7--------7--------7--------5-----5-----5-----5-|
4|------------------------------------------------|
5|------------------------------------------------|
6|------------------------------------------------|


1|----5--------5--------5--------0----------------|
2|-------6--------6--------0-----------0-----0----|
3|-7--------7--------7--------5-----5-----5-----5-|
4|------------------------------------------------|
5|------------------------------------------------|
6|------------------------------------------------|

1|----5--------5--------5--------0----------------|
2|-------6--------6--------0-----------0-----0----|
3|-7--------7--------7--------5-----5-----5-----5-|
4|------------------------------------------------|
5|------------------------------------------------|
6|------------------------------------------------|

1|----5--------5--------5--0----------------------|
2|-------6--------6--------1----------------------|
3|-7--------7--------7-----2----------------------|
4|-------------------------2----------------------|
5|------------------------------------------------|
6|------------------------------------------------|

   Cuando era chico queria ser como Superman
1|-0----------------------------------------------|
2|-1-------1--------1-----------------------------|
3|-2----2--------2--------------------------------|
4|-2-2--------2-----------------------------------|
5|------------------------------------------------|
6|------------------------------------------------|

   Pero ahora ya quiero ser diputado del PAN
1|-1----------------------------------------------|
2|-3-------3--------3-----------------------------|
3|-2----2--------2--------------------------------|
4|-0-0--------0-----------------------------------|
5|------------------------------------------------|
6|------------------------------------------------|

   O del PRI o del PRD
1|-0----------------------------------------------|
2|-1-------1--------1-----------------------------|
3|-2----2--------2--------------------------------|
4|-2-2--------2-----------------------------------|
5|------------------------------------------------|
6|------------------------------------------------|

   O cualquier cosa que tenga un poco de poder
1|-1----------------------------------------------|
2|-3-------3--------3-----------------------------|
3|-2----2--------2--------------------------------|
4|-0-0--------0-----------------------------------|
5|------------------------------------------------|
6|------------------------------------------------|

   Quiero convertirme en musico, politico
1|-0----------------------------------------------|
2|-1-------1--------1-----------------------------|
3|-2----2--------2--------------------------------|
4|-2-2--------2-----------------------------------|
5|------------------------------------------------|
6|------------------------------------------------|

   Y construirle un piso al periferico,
1|-1----------------------------------------------|
2|-3-------3--------3-----------------------------|
3|-2----2--------2--------------------------------|
4|-0-0--------0-----------------------------------|
5|------------------------------------------------|
6|------------------------------------------------|

   Quiero acabar con el trafico,
1|-0----------------------------------------------|
2|-1-------1--------1-----------------------------|
3|-2----2--------2--------------------------------|
4|-2-2--------2-----------------------------------|
5|------------------------------------------------|
6|------------------------------------------------|

   Tengo que entrar en la historia de Mexico
1|-1----------------------------------------------|
2|-3-------3--------3-----------------------------|
3|-2----2--------2--------------------------------|
4|-0-0--------0-----------------------------------|
5|------------------------------------------------|
6|------------------------------------------------|

   Y luego miro al pesero que va medio pedo
1|-0----------------------------------------------|
2|-1-------1--------1-----------------------------|
3|-2----2--------2--------------------------------|
4|-2-2--------2-----------------------------------|
5|------------------------------------------------|
6|------------------------------------------------|

   Jugando carreras con los pasajeros
1|-1----------------------------------------------|
2|-3-------3--------3-----------------------------|
3|-2----2--------2--------------------------------|
4|-0-0--------0-----------------------------------|
5|------------------------------------------------|
6|------------------------------------------------|

   Pero el tiene que pasar primero
1|-0----------------------------------------------|
2|-1-------1--------1-----------------------------|
3|-2----2--------2--------------------------------|
4|-2-2--------2-----------------------------------|
5|------------------------------------------------|
6|------------------------------------------------|

   Sin luces sin frenos junto al patrullero
1|-1----------------------------------------------|
2|-3-------3--------3-----------------------------|
3|-2----2--------2--------------------------------|
4|-0-0--------0-----------------------------------|
5|------------------------------------------------|
6|------------------------------------------------|

   Aunque no sepa leer no sepa hablar
1|-0----------------------------------------------|
2|-1-------1--------1-----------------------------|
3|-2----2--------2--------------------------------|
4|-2-2--------2-----------------------------------|
5|------------------------------------------------|
6|------------------------------------------------|

   El es el que te brinda la seguridad
1|-1----------------------------------------------|
2|-3-------3--------3-----------------------------|
3|-2----2--------2--------------------------------|
4|-0-0--------0-----------------------------------|
5|------------------------------------------------|
6|------------------------------------------------|

   Asi lo tienes que respetar,
1|-0----------------------------------------------|
2|-1-------1--------1-----------------------------|
3|-2----2--------2--------------------------------|
4|-2-2--------2-----------------------------------|
5|------------------------------------------------|
6|------------------------------------------------|

   Por que el representa nuestra autoridad
1|-1----------------------------------------------|
2|-3-------3--------3-----------------------------|
3|-2----2--------2--------------------------------|
4|-0-0--------0-----------------------------------|
5|------------------------------------------------|
6|------------------------------------------------|


So you think you're gonna hit me but now We're gonna hit you back
1|----5--------5--------5--------0----------------|
2|-------6--------6--------0-----------0-----0----|
3|-7--------7--------7--------5-----5-----5-----5-|
4|------------------------------------------------|
5|------------------------------------------------|
6|------------------------------------------------|

So you think you're gonna hit me but now We're gonna hit you back
1|----5--------5--------5--------0----------------|
2|-------6--------6--------0-----------0-----0----|
3|-7--------7--------7--------5-----5-----5-----5-|
4|------------------------------------------------|
5|------------------------------------------------|
6|------------------------------------------------|

So you think you're gonna hit me but now We're gonna hit you back
1|----5--------5--------5--------0----------------|
2|-------6--------6--------0-----------0-----0----|
3|-7--------7--------7--------5-----5-----5-----5-|
4|------------------------------------------------|
5|------------------------------------------------|
6|------------------------------------------------|

So you think you're gonna hit me but now We're gonna hit you back
1|----5--------5--------5--------0----------------|
2|-------6--------6--------0-----------0-----0----|
3|-7--------7--------7--------5-----5-----5-----5-|
4|------------------------------------------------|
5|------------------------------------------------|
6|------------------------------------------------|

   Te metera en el bolsillo una sustancia ilegal
1|-------0--------0-------------------------------|
2|----1--------1----------------------------------|
3|-2--------2-------------------------------------|
4|------------------------------------------------|
5|------------------------------------------------|
6|------------------------------------------------|

   Y te va a consignar al poder judicial
1|-------0--------0-------------------------------|
2|----3--------3----------------------------------|
3|-2--------2-------------------------------------|
4|------------------------------------------------|
5|------------------------------------------------|
6|------------------------------------------------|

   Y ahi seguro que te ira muy mal
1|-------0--------0-------------------------------|
2|----1--------1----------------------------------|
3|-2--------2-------------------------------------|
4|------------------------------------------------|
5|------------------------------------------------|
6|------------------------------------------------|

   Por que te haran cocowash con agua mineral
1|-------1--------1-------------------------------|
2|----3--------3----------------------------------|
3|-2--------2-------------------------------------|
4|------------------------------------------------|
5|------------------------------------------------|
6|------------------------------------------------|

   Por que en ti creiamos todos los mexicanos
1|-------0--------0-------------------------------|
2|----1--------1----------------------------------|
3|-2--------2-------------------------------------|
4|------------------------------------------------|
5|------------------------------------------------|
6|------------------------------------------------|

   Te dimos trabajo pagado y honrado
1|-------0--------0-------------------------------|
2|----3--------3----------------------------------|
3|-2--------2-------------------------------------|
4|------------------------------------------------|
5|------------------------------------------------|
6|------------------------------------------------|

   Te dimos un arma para cuidarnos
1|-------0--------0-------------------------------|
2|----1--------1----------------------------------|
3|-2--------2-------------------------------------|
4|------------------------------------------------|
5|------------------------------------------------|
6|------------------------------------------------|

   Y el arma que usas la usas para robarnos
1|-------1--------1-------------------------------|
2|----3--------3----------------------------------|
3|-2--------2-------------------------------------|
4|------------------------------------------------|
5|------------------------------------------------|
6|------------------------------------------------|

  Y aunque quieras quejarte con papa gobierno
1|-------0--------0-------------------------------|
2|----1--------1----------------------------------|
3|-2--------2-------------------------------------|
4|------------------------------------------------|
5|------------------------------------------------|
6|------------------------------------------------|


  Les pides ayuda y te mandan al infierno
1|-------0--------0-------------------------------|
2|----3--------3----------------------------------|
3|-2--------2-------------------------------------|
4|------------------------------------------------|
5|------------------------------------------------|
6|------------------------------------------------|


  Por que tendriamos que tirar buen pedo
1|-------0--------0-------------------------------|
2|----1--------1----------------------------------|
3|-2--------2-------------------------------------|
4|------------------------------------------------|
5|------------------------------------------------|
6|------------------------------------------------|

  Solo te van a dar atole con el dedo
1|-------1--------1-------------------------------|
2|----3--------3----------------------------------|
3|-2--------2-------------------------------------|
4|------------------------------------------------|
5|------------------------------------------------|
6|------------------------------------------------|

  Y en la fila del departamento de quejas
1|-------0--------0-------------------------------|
2|----1--------1----------------------------------|
3|-2--------2-------------------------------------|
4|------------------------------------------------|
5|------------------------------------------------|
6|------------------------------------------------|

  Toparas con un mar de secretarias pendejas
1|-------0--------0-------------------------------|
2|----3--------3----------------------------------|
3|-2--------2-------------------------------------|
4|------------------------------------------------|
5|------------------------------------------------|
6|------------------------------------------------|

  El siguiente en la fila y asi te la pelas
1|-------0--------0-------------------------------|
2|----1--------1----------------------------------|
3|-2--------2-------------------------------------|
4|------------------------------------------------|
5|------------------------------------------------|
6|------------------------------------------------|

  Pero el bono sexenal nunca se traspapela
1|-------1--------1-------------------------------|
2|----3--------3----------------------------------|
3|-2--------2-------------------------------------|
4|------------------------------------------------|
5|------------------------------------------------|
6|------------------------------------------------|

So you think you're gonna hit me but now We're gonna hit you back
1|----5--------5--------5--------0----------------|
2|-------6--------6--------0-----------0-----0----|
3|-7--------7--------7--------5-----5-----5-----5-|
4|------------------------------------------------|
5|------------------------------------------------|
6|------------------------------------------------|

So you think you're gonna hit me but now We're gonna hit you back
1|----5--------5--------5--------0----------------|
2|-------6--------6--------0-----------0-----0----|
3|-7--------7--------7--------5-----5-----5-----5-|
4|------------------------------------------------|
5|------------------------------------------------|
6|------------------------------------------------|

So you think you're gonna hit me but now We're gonna hit you back
1|----5--------5--------5--------0----------------|
2|-------6--------6--------0-----------0-----0----|
3|-7--------7--------7--------5-----5-----5-----5-|
4|------------------------------------------------|
5|------------------------------------------------|
6|------------------------------------------------|

So you think you're gonna hit me hit me
1|----5--------5--------5--------0----------------|
2|-------6--------6--------0-----------0-----0----|
3|-7--------7--------7--------5-----5-----5-----5-|
4|------------------------------------------------|
5|------------------------------------------------|
6|------------------------------------------------|

1|-1-------0-------1------3-0---------------------|
2|-3-------1-------3--------1---------------------|
3|-2-------2-------2--------2---------------------|
4|-0-------2-------0--------2---------------------|
5|-0-------0-------0--------0---------------------|
6|------------------------------------------------|

   Mexico solidario acabo a los tiranos
1|-0----------------------------------------------|
2|-0----------------------------------------------|
3|-2----------------------------------------------|
4|-2----------------------------------------------|
5|-0----------------------------------------------|
6|------------------------------------------------|

   Sin la necesidad de ensuciarnos las manos
1|-1----------------------------------------------|
2|-3----------------------------------------------|
3|-2----------------------------------------------|
4|-0----------------------------------------------|
5|-0----------------------------------------------|
6|------------------------------------------------|

   No podemos pedir resultados inmediatos
1|-0----------------------------------------------|
2|-1----------------------------------------------|
3|-2----------------------------------------------|
4|-2----------------------------------------------|
5|-0----------------------------------------------|
6|------------------------------------------------|

   De un legado de 75 años
1|-1----------------------------------------------|
2|-3----------------------------------------------|
3|-2----------------------------------------------|
4|-0----------------------------------------------|
5|-0----------------------------------------------|
6|------------------------------------------------|

   Todos unidos pedimos un cambio
1|-------0----------------------------------------|
2|-1-----1----------------------------------------|
3|----2--2----------------------------------------|
4|-------2----------------------------------------|
5|------------------------------------------------|
6|------------------------------------------------|

   Piedra sobre piedra y peldaño a peldaño
1|-1----------------------------------------------|
2|-3----------------------------------------------|
3|-2----------------------------------------------|
4|-0----------------------------------------------|
5|-0----------------------------------------------|
6|------------------------------------------------|

   Solo poder expresarnos
1|------------------------------------------------|
2|----1-------------------------------------------|
3|-2----------------------------------------------|
4|------------------------------------------------|
5|------------------------------------------------|
6|------------------------------------------------|

   Es palabra de honor de nuestro jefe de estado
1|-1----------------------------------------------|
2|-3----------------------------------------------|
3|-2----------------------------------------------|
4|-0----------------------------------------------|
5|-0----------------------------------------------|
6|------------------------------------------------|

   Te arrepentiras de todo lo que trabajas
1|-------0----------------------------------------|
2|-1-----1----------------------------------------|
3|----2--2----------------------------------------|
4|-------2----------------------------------------|
5|------------------------------------------------|
6|------------------------------------------------|

   Se te ira la mitad de todo lo que tu ganas
1|-------1----------------------------------------|
2|----1--3----------------------------------------|
3|-2-----2----------------------------------------|
4|-------0----------------------------------------|
5|-------0----------------------------------------|
6|------------------------------------------------|

   Manteniendo los puestos de copias piratas
1|-------0----------------------------------------|
2|-1-----1----------------------------------------|
3|----2--2----------------------------------------|
4|-------2----------------------------------------|
5|------------------------------------------------|
6|------------------------------------------------|

   Que no pagan impuestos pero son mas baratas
1|-------1----------------------------------------|
2|----1--3----------------------------------------|
3|-2-----2----------------------------------------|
4|-------0----------------------------------------|
5|-------0----------------------------------------|
6|------------------------------------------------|

   De una fuerte campaña de tele y de radio
1|-------0----------------------------------------|
2|-1-----1----------------------------------------|
3|----2--2----------------------------------------|
4|-------2----------------------------------------|
5|------------------------------------------------|
6|------------------------------------------------|

   Promoviendo la union entre los ciudadanos
1|-------1----------------------------------------|
2|----1--3----------------------------------------|
3|-2-----2----------------------------------------|
4|-------0----------------------------------------|
5|-------0----------------------------------------|
6|------------------------------------------------|

   Igual que tu molotov tambien es mexicano
1|-------0----------------------------------------|
2|-1-----1----------------------------------------|
3|----2--2----------------------------------------|
4|-------2----------------------------------------|
5|------------------------------------------------|
6|------------------------------------------------|

(Nos quieren pegar pegar) So you think you're gonna hit me (y nos la van a pagar) but 
now we're gonna hit you back
1|----5--------5--------5--------0----------------|
2|-------6--------6--------0-----------0-----0----|
3|-7--------7--------7--------5-----5-----5-----5-|
4|------------------------------------------------|
5|------------------------------------------------|
6|------------------------------------------------|

(Nos quieren pegar pegar) So you think you're gonna hit me (y nos la van a pagar) but 
now we're gonna hit you back
1|----5--------5--------5--------0----------------|
2|-------6--------6--------0-----------0-----0----|
3|-7--------7--------7--------5-----5-----5-----5-|
4|------------------------------------------------|
5|------------------------------------------------|
6|------------------------------------------------|

(Nos quieren pegar pegar) So you think you're gonna hit me (y nos la van a pagar) but 
now we're gonna hit you back
1|----5--------5--------5--------0----------------|
2|-------6--------6--------0-----------0-----0----|
3|-7--------7--------7--------5-----5-----5-----5-|
4|------------------------------------------------|
5|------------------------------------------------|
6|------------------------------------------------|

(Nos quieren pegar pegar) So you think you're gonna hit me (y nos la van a pagar) but 
now we're gonna hit you back
1|----5--------5--------5--------0----------------|
2|-------6--------6--------0-----------0-----0----|
3|-7--------7--------7--------5-----5-----5-----5-|
4|------------------------------------------------|
5|------------------------------------------------|
6|------------------------------------------------|

Nos quieren pegar pegar y nos la van a pagar
1|----5--------5--------5--------0----------------|
2|-------6--------6--------0-----------0-----0----|
3|-7--------7--------7--------5-----5-----5-----5-|
4|------------------------------------------------|
5|------------------------------------------------|
6|------------------------------------------------|

Nos quieren pegar pegar y nos la van a pagar
1|----5--------5--------5--------0----------------|
2|-------6--------6--------0-----------0-----0----|
3|-7--------7--------7--------5-----5-----5-----5-|
4|------------------------------------------------|
5|------------------------------------------------|
6|------------------------------------------------|

Nos quieren pegar pegar y nos la van a pagar
1|----5--------5--------5--------0----------------|
2|-------6--------6--------0-----------0-----0----|
3|-7--------7--------7--------5-----5-----5-----5-|
4|------------------------------------------------|
5|------------------------------------------------|
6|------------------------------------------------|

(Nos quieren pegar pegar) So you think you're gonna hit me (y nos la van a pagar) but 
now we're gonna hit you back
1|----5--------5--------5--------0----------------|
2|-------6--------6--------0-----------0-----0----|
3|-7--------7--------7--------5-----5-----5-----5-|
4|------------------------------------------------|
5|------------------------------------------------|
6|------------------------------------------------|

(Nos quieren pegar pegar) So you think you're gonna hit me (y nos la van a pagar) Hit me..
1|----5--------5--------5--------0----------------|
2|-------6--------6--------0-----------0-----0----|
3|-7--------7--------7--------5-----5-----5-----5-|
4|------------------------------------------------|
5|------------------------------------------------|
6|------------------------------------------------|
            
Submit corrections

comments powered by Disqus
↑ Back to top | Molotov Tabs for Hit Me. Lyrics for acoustic guitar and electric guitar. Tablatures and chords are parodies/interpretations of the original songs. You may use it for private study, scholarship, research or language learning purposes only