» » »

Molotov, El Marciano Tabs (ver.1)

Artists:  A B C D E F G H I J K L M N O P Q R S T U V W X Y Z # 

El Marciano Tabs (ver.1)

Molotov Tabs
 Rating:
4/5 (6 votes)
El Marciano lessons Tabs too difficult? Try these video lessons and learn fast
1
                |--------------------------------------------------------|
|--------------------------------------------------------|

---------------------------------
| /  slide                      |
| h  ligado ascendente          |
| p  ligado descendente         |
| ~  vibrato                    |
| +  harmonico                  |
| x  nota muerta                |
| b  estirar cuerda             |
| .  dejar sonar por un momento |
---------------------------------

notas

                  C#m5          B5           A5
                \x___xx/     \x___xx/     \___xxx/
               4 |0||||     2 |0||||     5 0|||||
                 ||||||       ||||||       ||||||
                 ||00||       ||00||       |00|||
                 ||||||       ||||||       ||||||


intro

1/-9---9--9---9--9---12--9---9-|
2/---9------9------9-------9---|
3/-----------------------------|
4/-----------------------------|
5/-----------------------------|
6/-----------------------------|
 \____________________________/
              x4

          C#m5                    B5
cocowash marciano es una cosa espantosa
           C#m5             B5
quieres escabecharte casi cualquier cosa
   C#m5               B5
 no es el cuerpo marrano que solia tener
       C#m5             B5
ni la cara mi reina que tu has de querer porque

A5      B5            C#m5    C#m5-B5-A5
me convierto en marciano, wohoo
       B5          C#m5    C#m5-B5-A5
no se ni como me llamo, wohoo
     B5           C#m5        C#m5-B5-A5
a veces no puedo ni dormir, wohoo
        B5            C#m5
en marciano me fui a convertir

solo

1/--9-9-9-7-9/12.--9-9-9-7-9/12-12-12-9-9.-|
2/-9--------------9------------------------|
3/-----------------------------------------|
4/-----------------------------------------|
5/-----------------------------------------|
6/-----------------------------------------|

1/--9-9-9-7-9/12.--9-9-9-7-9/12-12-12-9-9/12-9-|
2/-9--------------9----------------------------|
3/---------------------------------------------|
4/---------------------------------------------|
5/---------------------------------------------|
6/---------------------------------------------|

1/--9-9-9-7-9/12.--9-9-9-7-9/12-12-12-9-9.-|
2/-9--------------9------------------------|
3/-----------------------------------------|
4/-----------------------------------------|
5/-----------------------------------------|
6/-----------------------------------------|

1/-16-13----16-13----16-13-------------16-13----16-13----16-13------------|
2/-------14-------14-------14-14-14.---------14-------14-------14-14-14.--|
3/------------------------------------------------------------------------|
4/------------------------------------------------------------------------|
5/------------------------------------------------------------------------|
6/------------------------------------------------------------------------|

1/-9---9---9---7----9---9--9---9--7---|
2/---9---9.--9---7.---9------9------7-|
3/------------------------------------|
4/------------------------------------|
5/------------------------------------|
6/------------------------------------|
 \___________________________________/
            
Submit corrections

comments powered by Disqus
↑ Back to top | Molotov Tabs for El Marciano. Lyrics for acoustic guitar and electric guitar. 1 Tablatures and chords are parodies/interpretations of the original songs. You may use it for private study, scholarship, research or language learning purposes only