» » »

Dance And Dense Denso Bass tabs (ver.1)

Artists:  A B C D E F G H I J K L M N O P Q R S T U V W X Y Z # 

Dance And Dense Denso Bass tabs (ver.1)

Molotov
Rating:
0/5 (0 votes)

Hard to play? Try these video lessons and learn fast.
                
Please Rate this tab.
1st verse or Intro: No Bass
2nd verse (Paco) x 4 
G|-----------------------------------|
D|------2h3p2-0----------------------|
A|--0-0---------3-2-3-2-0-2-3-2-0----|
E|--------------------------------3--|
B|-----------------------------------|

3rd verse (Tito) x 4                      The other Bass:
G|-------------------------------------| |---------------------------------------|
D|-------------------------------------| |---------------------------------------|
A|--0--0-7/5---0--0-5/3--0--0-2h3--2---| |--0--0-9/7---0--0-7/5--0--0-4h5--4-----|
E|-----------------------------------3-| |-----------------------------------5---|
B|-------------------------------------| |---------------------------------------|

Chorus x 4                         El otro bajo hace esto:
G|-----------------------------|  |--------------------------------| 
D|-----------------------------|  |--------------------------------|
A|--0-0-0-0-0-0-0-0--3-3-3-----|  |--------------------------------|
E|--------------------------3--|  |--5-5-5-5-5-5-5-5--8-8-8--------|
B|-----------------------------|  |--------------------------8-----|

4th Verse(Randy)x4(The first part of this Verse is only guitar. Bass enters in the 2nd part)
Come on get rowdy, come and get bloody...
G|-----------------------------------|
D|------2h3p2-0----------------------|
A|--0-0---------3-2-3-2-0-2-3-2-0----|
E|--------------------------------3--|
B|-----------------------------------|

3rd Verse again (Tito) x 4                The other Bass:
G|-------------------------------------| |---------------------------------------|
D|-------------------------------------| |---------------------------------------|
A|--0--0-7/5---0--0-5/3--0--0-2h3--2---| |--0--0-9/7---0--0-7/5--0--0-4h5--4-----|
E|-----------------------------------3-| |-----------------------------------5---|
B|-------------------------------------| |---------------------------------------|
 
Chorus x 4                         The other bass:
G|-----------------------------|  |--------------------------------| 
D|-----------------------------|  |--------------------------------|
A|--0-0-0-0-0-0-0-0--3-3-3-----|  |--------------------------------|
E|--------------------------3--|  |--5-5-5-5-5-5-5-5--8-8-8--------|
B|-----------------------------|  |--------------------------8-----|

The last part of the chorus: (both Basses)
G|-------------------------------|
D|-------------------------------|
A|-------------------------------|
E|--5-5-5-5-5-5-5-5--8-8-8-------|
B|--------------------------8----|


Thast´s it.

Daniel



								Viva Bolivia
            
Hard to play? Try these video lessons and learn fast. | Correct




comments powered by Disqus
↑ Back to top | Tablatures and chords are parodies/interpretations of the original songs. You may use it for private study, scholarship, research or language learning purposes only