» » »

Dance And Dense Denso Tabs (ver.1)

Artists:  A B C D E F G H I J K L M N O P Q R S T U V W X Y Z # 

Dance And Dense Denso Tabs (ver.1)

Molotov
Rating:
5/5 (1 vote)

Hard to play? Try these video lessons and learn fast.
                Aki esta gringos de sh*t su cancion es una de las ke me se

Well here is a good song, if you like it send me a mail to:


Good luck with the playing i'm mexican i don't think what a gringo see this tabs and i
don't thik he liked molotov but her is dense por servidos

VERSO
first part
    |-PM-| 
e|------------------------------------------------|-
B|------------------------------------------------|-
G|------------------------------------------------|-
D|---------2~---0---------------------------------|- 
A|---0--0----------3--2--3--2--0--2--3--2--0------|-
E|--------------------------------------------3---|-

second part
    |-PM-|      |-PM-|      |-PM-|                              
e|--------------------------------------------|-
B|--------------------------------------------|-
G|---------9/7---------7/5---------4~--4------|-
D|---------9/7---------7/5---------4~--4--5---|- 
A|---0--0--7/5---0--0--5/3---0--0--2~--2--5---|-
E|----------------------------------------3---|-


Chorus
e|-------------------------------|-
B|-------------------------------|-
G|---2-2-2-2-2-2-2-2--5-5-5------|-
D|---2-2-2-2-2-2-2-2--5-5-5--5---|- 
A|---0-0-0-0-0-0-0-0--3-3-3--5---|-
E|---------------------------3---|-


FINAL
e|-------|-
B|-------|-
G|---2---|-
D|---2---|-
A|---0---|-
E|-------|-
            
Hard to play? Try these video lessons and learn fast. | Correct




comments powered by Disqus
↑ Back to top | Tablatures and chords are parodies/interpretations of the original songs. You may use it for private study, scholarship, research or language learning purposes only