» » »

Molotov, Blame Me Tabs (ver.1)

Artists:  A B C D E F G H I J K L M N O P Q R S T U V W X Y Z # 

Blame Me Tabs (ver.1)

Molotov Tabs
Rating:
0/5 (0 votes)
Blame Me lessons Tabs too difficult? Try these video lessons and learn fast
                Antes ke nada, kiero mandar un saludo a toda la banda rockera ke gusta de molotov y de 
toda la buena música... Esta es mi primera tablatura ke transcribo, pues es la única rola 
ke he sacado de oido y de la cual no existe ninguna tab...

En primera tenemos el intro y verso de la canción y este se puede tocar así:

1° Forma:

e|--------------------------------------------------------------------------|
b|--------------------------------------------------------------------------|
g|--------------------------------------------------------------------------|
d|--------------------------------------------------------------------------|
a|---------------------5----------------------------------------------------|
E|-7-7-5-7-7-5-7-7-5-7---7-5-7----------------------------------------------|

2° Forma:

e|--------------------------------------------------------------------------|
b|--------------------------------------------------------------------------|
g|--------------------------------------------------------------------------|
d|--------------------------------------------------------------------------|
a|-2-2-0-2-2-0-2-2-0-2-5-2-0-2----------------------------------------------|
E|--------------------------------------------------------------------------|

3° Forma:

e|--------------------------------------------------------------------------|
b|--------------------------------------------------------------------------|
g|--------------------------------------------------------------------------|
d|-------------------0------------------------------------------------------|
a|-2-2-0-2-2-0-2-2-0---2-0-2------------------------------------------------|
E|--------------------------------------------------------------------------|

Los pequeño puentes que se oyen en la canción entre los versos se tocan así:

e|--------------------------------------------------------------------------|
b|--------------------------------------------------------------------------|
g|--------------------------------------------------------------------------|
d|--------------------------------------------------------------------------|
a|-Primer puente---------Segundo puente-------------------------------------|
E|----3-3-5-5---------------4-4-5-5-----------------------------------------|



Lo siguiente es el coro de la cancion y este se toca así:

1° Forma:

e|--------------------------------------------------------------------------|
b|--------------------------------------------------------------------------|
g|--------------------------------------------------------------------------|
d|-4-4-4-4--------------------2-2-2-2---------------------------------------|
a|-2-2-2-2--6-6-6-6--7-7-7-7--2-2-2-2---------------------------------------|
E|----------4-4-4-4--5-5-5-5--0-0-0-0---------------------------------------|

2° Forma:

e|--------------------------------------------------------------------------|
b|--------------------------------------------------------------------------|
g|--------------------------------------------------------------------------|
d|----------------------------2-2-2-2---------------------------------------|
a|-9-9-9-9--6-6-6-6--7-7-7-7--2-2-2-2---------------------------------------|
E|-7-7-7-7--4-4-4-4--5-5-5-5--0-0-0-0---------------------------------------|

En el minuto 1:55

e|--------------------------------------------------------------------------|
b|--------------------------------------------------------------------------|
g|--------------------------------------------------------------------------|
d|---9-9-9-9--11/0----------------------------------------------------------|
a|---7-7-7-7--9/0-----------------------------------------------------------|
E|--------------------------------------------------------------------------|

Al final

e|--------------------------------------------------------------------------|
b|--------------------------------------------------------------------------|
g|--------------------------------------------------|-----------------------|
d|--------------------------------------2-2-2-2-2-2-|-----------------------|
a|-9-9-9-9-9-9-6-6-6-6-6-6-7-7-7-7-7-7--2-2-0-2-2-0-|--9/0------------------|
E|-7-7-0-7-7-0-4-4-0-4-4-0-5-5-0-5-5-0--0-0-0-0-0-0-|--7/0------------------|



Sigan Rockeando!
                                                             Tab by Vizontte
            

comments powered by Disqus
↑ Back to top | Molotov Tabs for Blame Me. Lyrics for acoustic guitar and electric guitar. Tablatures and chords are parodies/interpretations of the original songs. You may use it for private study, scholarship, research or language learning purposes only