>
 >
Take Miss Lucy Home

Take Miss Lucy Home Guitar Tabs

Molly Hatchet - Take Miss Lucy Home chords, tabs, tablatures, lyrics

Guitar lessons | Add/correct | Request | Top 50 tabs Artists:  A B C D E F G H I J K L M N O P Q R S T U V W X Y Z 0-9

Take Miss Lucy Home Guitar Tabs – Molly Hatchet

CD, Sheet music, Poster

Do you like Take Miss Lucy Home? Share with your friends now
Tabs
#------------------------------------------------------------------------------##

                               TAKE MISS LUCY HOME
                          As recorded by Molly Hatchet
                  (From the 1989 Album LIGHTNING STRIKES TWICE)

Words and Music by R. Perry & F. Wildhorn

Gtr I (E A D G B E) - 'Duane Roland - Gtr.1'
Gtr II (E A D G B E) - 'Bobby Ingram - Gtr.2'

 Intro
  Fast Rock Q=160
            A              N.C.
 4/4
  Gtrs I, II
                           ~~~~~~~~~~~~~~~~~~~~~~~~~~~~~~~~
  H    Q  E E   +H..       E   +H..       E   +H..       E
|-------------|--------------|--------------|--------------|
|-----------2-|-(2)----------|--------------|--------------|
|-----------2-|-(2)----------|--------------|--------------|
|-----------2-|-(2)----------|--------------|--------------|
|-----------0-|-(0)--------4-|-(4)--------5-|-(5)--------6-|
|-------------|--------------|--------------|--------------|


                E                                         A
   ~~~                  PM  PM    PM
  +H.      +E   E   +E  E E E E E E E    E E  E E +E  E E E
|-----------------|-------------------|---------------------|
|-----------------|-------------------|-------------------2-|
|---------------9-|-(9)---9---9-9-----|---------9-(9)-9---2-|
|---------------9-|-(9)---9---9-9-----|----9-11-9-(9)-9---2-|
|-(6)------(6)\-7-|-(7)---7---7-7---9s|=11----------------0-|
|---------------0-|-(0)-0---0-----0---|-----------------4---|


  Gtr I
  Q  E E E E E E   E E E E E E E E   +Q    E E E E E E   E E E E E E E E
|----------------|-----------------|-------------------|------------------||
|-2--------------|-----------------|-------------------|------------------||
|-2------------5s|=4-2-----------2-|-(2)-------------5s|=4-2---------2-2--||
|-2------2h4---5s|=4-2-----2h4---2-|-(2)-------2h4---5s|=4-2-----2h4---2--||
|-0--3h4-----0---|-----3h4-----0-0-|-(0)---3h4-----0---|-----3h4-------0--||
|----------------|-----------------|-------------------|------------------||
|
| Gtr II
| W                H       Q   E E   +E  E E E E E E E   E E E E E E E E
|----------------|---------------5-|-(5)-5---------5-8s|=7-5---------5----||
|----------------|---------------5-|-(5)-5-----5-7-5-8s|=7-5-----5-7-5----||
|----------------|-----------------|-------5h6---------|-----5h6-------2--||
|----------------|-----------------|-------------------|---------------2--||
|----------------|-----------------|-------------------|---------------0--||
|----------------|-----------------|-------------------|------------------||


   1st, 2nd & 4th Verses
    $
    A               D                 A
    Gtrs I, II
    +E  E E E E E E E   +E  E E E E E E E
||--------------------|-------------------|
||o-------------------|-------------------|
||--(2)-------------2-|-(2)-2-4---2-4-----|
||--(2)---4---2-4---0-|-(0)-0-0-0-0-0-2-2-|
||o-(0)-0-0-0-0-0-0---|---------------0-0-|
||--------------------|-------------------|


  +E  E E E E E E   E   +E  E E E E E E   E
|---------------------|---------------------|
|---------------------|---------------------|
|-------------------2-|-(2)-----------------|
|-(2)-2-4-2-4-2-----2-|-(2)-2-4-2-4-2-----2-|
|-(0)-0-0-0-----3b4-0-|-(0)-0-0-0-----3b4-0-|
|---------------------|---------------------|


                                      E
  +E  E E E E E E E   +E  E E E E E E E
|-------------------|-------------------|
|-------------------|-------------------|
|-----------------2-|-(2)---------------|
|-(2)---4---2-4---2-|-(2)---4-2-2-4-----|
|-(0)-0-0-0-0-0-0-0-|-(0)-0-0-0-0---0-2-|
|-------------------|-----------------0-|


                                      A
  +E  E E E E E E E   +E  E E E E E E E
|-------------------|--------------------|
|-------------------|--------------------|
|-------------------|-----------------2--|
|-----------------2-|-(2)-2-----------2--|
|-(2)-------2-4-----|-----------2-4-2-0--|
|-(0)-0-3-4-----0---|-------3-4----------|


                                      D
  +E  E E E E E E E   +E  E E E E E E E
|-------------------|-------------------|
|-------------------|-------------------|
|-(2)---------------|-------2-2---2---7-|
|-(2)---4-2-4-2-4---|-------2-2---2---7-|
|-(0)-0-0-0-0-0-0-4-|-(4)-4-----4---4-5-|
|-------------------|-------------------|


             C#C B                   A
  +Q   E E E E E E   +E  E E E E E E E
|------------------|--------------------|
|------------------|--------------------|
|-(7)--7-7-7-6-5-4-|-(4)---------4------|
|-(7)--7-7-7-6-5-4-|-(4)-----4-6-4---2--|
|-(5)--5-5-5-4-3-2-|-(2)-4s6---------0--|
|------------------|--------------------|


                               To Coda
                 E                  A
  +Q   E E E E E E   +Q   E E E E E E
|------------------|-------------------|
|------------------|-------------------|
|------------------|-------------------|
|-(2)--4-2-4-2-----|----------------2--|
|-(0)--0-0-0-0---2-|-(2)------2-4-2-0--|
|--------------4-0-|-(0)--3-4----------|


                     1.
  +E  E E E E E E E   E E E E E E E   E
|-------------------|--------------------||
|-------------------|-------------------o||
|-------------------|-2-----2---------2--||
|-(2)---4-2-4-2-----|-2-----2-4-2-----2--||
|-(0)-0-0-0-0-0-3-4-|-0-3-4-------3b4-0-o||
|-------------------|--------------------||


                      Chorus
  2.
                       A
  E E E E E E E   E    +Q   E E E E E E
|-------------------||------------------|
|-------------------||------------------|
|-2-----2---------2-||-(2)--------------|
|-2-----2-4-2-----2-||-(2)--2---2-4---2-|
|-0-3-4---0-0-3b4-0-||-(0)--0-0-0-0-0-0-|
|-------------------||------------------|


                  B
  +E  E E E E E E E   +Q   E E E E E E
|-------------------|-------------------|
|-------------------|-------------------|
|-------------------|-------------------|
|-(2)-2-4---2-4---4-|-(4)--6---4-6---4--|
|-(0)-0-0-0-0-0-0-2-|-(2)--2-2-2-2-2-2--|
|-------------------|-------------------|


              C C#D                   E                     A
  +E  E E E E E E E   +E  E E E E E E E   +E  E  E E E E  E E
|-------------------|-------------------|---------------------|
|-------------------|-------------------|---------------------|
|-------------------|-------------------|-------------------2-|
|-(4)-4-6-4-4-5-6-7-|-(7)-7-9-7-7-9-7-9-|-(9)-9-11-9-9-9-11-2-|
|-(2)-2-2-2-2-3-4-5-|-(5)-5-5-5-5-5-5-7-|-(7)-7--7-7-7-7--7-0-|
|-------------------|-------------------|---------------------|


  Gtr I
  +Q   E E E E E E   E E E E E E E E   +E  E E E E E E E   E E E E E E E E
|------------------|-----------------|-------------------|------------------||
|------------------|-----------------|-------------------|------------------||
|-(2)------------5s|=4-2-------------|-----------------5s|=4-2-----------2--||
|-(2)------2h4---5s|=4-2-----2h4---2-|-(2)-------2h4---5s|=4-2-----2h4---2--||
|-(0)--3h4-----0---|-----3h4-----0-0-|-(0)-0-3h4-----0---|-----3h4-----0-0--||
|------------------|-----------------|-------------------|------------------||
|
| Gtr II
|  W                 H       Q   E E   +E  E E E E E E E   E E E E E E E E
|------------------|---------------5-|-(5)-5---------5-8s|=7-5---------5----||
|------------------|---------------5-|-(5)-5-----5-7-5-8s|=7-5-----5-7-5----||
|------------------|-----------------|-------5h6---------|-----5h6-------2--||
|------------------|-----------------|-------------------|---------------2--||
|------------------|-----------------|-------------------|---------------0--||
|------------------|-----------------|-------------------|------------------||


 3rd Verse
  A               D                 A
  Gtrs I, II
  +E  E E E E E E E   +E  E E E E E E E
|-------------------|-------------------|
|-------------------|-------------------|
|-(2)-------------2-|-(2)-2-4---2-4-----|
|-(2)---4---2-4---0-|-(0)-0-0-0-0-0-2-2-|
|-(0)-0-0-0-0-0-0---|---------------0-0-|
|-------------------|-------------------|


  +E  E E E E E E   E   +E  E E E E E E   E
|---------------------|----------------------|
|---------------------|----------------------|
|-------------------2-|-(2)------------------|
|-(2)-2-4-2-4-2-----2-|-(2)-2-4-2-4-2-----2--|
|-(0)-0-0-0-----3b4-0-|-(0)-0-0-0-----3b4-0--|
|---------------------|----------------------|


                                      E
  +E  E E E E E E E   +E  E E E E E E E
|-------------------|-------------------|
|-------------------|-------------------|
|-----------------2-|-(2)---------------|
|-(2)---4---2-4---2-|-(2)---4-2-2-4-----|
|-(0)-0-0-0-0-0-0-0-|-(0)-0-0-0-0---0-2-|
|-------------------|-----------------0-|


                                      A
  +E  E E E E E E E   +E  E E E E E E E
|-------------------|--------------------|
|-------------------|--------------------|
|-------------------|-----------------2--|
|-----------------2-|-(2)-2-----------2--|
|-(2)-------2-4-----|-----------2-4-2-0--|
|-(0)-0-3-4-----0---|-------3-4----------|


                                      D              C#C B
  +E  E E E E E E E   +E  E E E E E E E   +Q   E E E E E E   E E E E E E E E
|-------------------|-------------------|------------------|------------------|
|-------------------|-------------------|------------------|------------------|
|-(2)---------------|-------2-2---2---7-|-(7)--7-7-7-6-5-4-|---4---4---4---4--|
|-(2)---4-2-4-2-4---|-------2-2---2---7-|-(7)--7-7-7-6-5-4-|---4---4---4---4--|
|-(0)-0-0-0-0-0-0-4-|-(4)-4-----4---4-5-|-(5)--5-5-5-4-3-2-|---2---2---2---2--|
|-------------------|-------------------|------------------|------------------|


  A
  Q  E E E E E E   +Q   E E E E E E
|----------------|------------------|
|----------------|------------------|
|----------------|------------------|
|-2--4-2-4-2-----|----------------2-|
|-0--0-0-0-0---2-|-(2)------2-4-2-0-|
|------------4-0-|-(0)--3-4---------|


                              B   C   C#D
  +E  E E E E E E   E   +E  E E E E E E E
|---------------------|--------------------||
|---------------------|--------------------||
|-------------------2-|-(2)----------------||
|-(2)-2-4-2-4-2-----2-|-(2)-2-4-4-5-5-6-7--||
|-(0)-0-0-0-----3b4-0-|-(0)-0-2-2-3-3-4-5--||
|---------------------|--------------------||


 Bridge
                                  A
  E E E E E E E E   E E E E E E E E   +Q   E E E E E E   E E E E E E E E
|-----------------|-----------------|------------------|------------------|
|-----------------|---------------2-|-(2)--------------|------------------|
|-----------------|---------------2-|-(2)------------5s|=4-2--------------|
|-7-7-7-7-7-7-7-7-|-7-7-7-7-7-7-7-2-|-(2)------2h4---5s|=4-2-----2h4---7--|
|-5-5-5-5-5-5-5-5-|-5-5-5-5-5-5-5-0-|-(0)--3h4-----0---|-----3h4-----0-5--|
|-----------------|-----------------|------------------|------------------|


  D                           Eb  E
  E E E E E E E E   E E E E E E E E   +E  E E E E E E E   E E E E E E E E
|-----------------|-----------------|-------------------|-------------------||
|-----------------|-----------------|-------------------|-------------------||
|-----------------|-----------8---9-|-(9)-9-9-9-9-9-9-9-|-9-9---9---9---9s==||
|-7-7-7-7-7-7-7-7-|-7-7-7-7-7-8---9-|-(9)-9-9-9-9-9-9-9-|-9-9---9---9-------||
|-5-5-5-5-5-5-5-5-|-5-5-5-5-5-6---7-|-(7)-7-7-7-7-7-7-7-|-7-7---7---7-------||
|-----------------|-----------------|-------------------|-------------------||


 Guitar Solo
  D                                                   A
  Gtr I
               ~~                              ~~
   E  E  E  E  Q    E  E        +E    E  E  E  Q    E  E
|----------------------------|------------------------12b14==|
|----10-10----10------12b13==|=(12)r-12-10----10---10--------|
|-11-------11------11--------|-------------11----------------|
|----------------------------|-------------------------------|
|----------------------------|-------------------------------|
|----------------------------|-------------------------------|
|
| Gtr II
|  E  E  E  E  E E  E  E        +E    E  E  E  E E  E  E
|----------------------------|-------------------------------|
|----------------------------|-------------------------------|
|----------------------------|-------------------------------|
|--7--7--9--7--7-7--9--7-----|--(7)---7--9--7--7-7--7--2-----|
|--5--5--5--5--5-5--5--5-----|--(5)---5--5--5--5-5--5--0-----|
|----------------------------|-------------------------------|


   +E    E  E     E  Q      E  E
|-(12)r-12-12b14-12-12b14-----12b14==|
|------------------------------------|
|------------------------------------|
|------------------------------------|
|------------------------------------|
|------------------------------------|
|
|  +E    E  E     E  E    E E  E
|------------------------------------|
|------------------------------------|
|------------------------------2-----|
|--(2)---2-----------2----4----------|
|--(0)---0--3-----4--0----0-0--------|
|------------------------------------|


                            D
                        ~~
   +E    E  E  E  E     Q    +E
|-(12)r-12-10-12------------------|
|----------------12b14-10---(10)\-|
|---------------------------------|
|---------------------------------|
|---------------------------------|
|---------------------------------|
|
|  +E    E  E  E  E     E E   E
|---------------------------------|
|---------------------------------|
|--(2)---2------------------------|
|--------2--------2-----4-----7---|
|--------0--3--4--0-----0-----5---|
|---------------------------------|


                 ~~
    E   E  E  E  Q    E  E    +E      E  E  E  Q    E  E
|--------------------------|-----------------------------|
|--------------------------|-----------------------------|
|------14-14----14------16-|-(16)b18-16-14----14---16-14-|
|-/16--------16------16----|---------------16------------|
|--------------------------|-----------------------------|
|--------------------------|-----------------------------|
|
|  +E   E  E  E  E E  E  E    +E      E  E  E  E E  E  E
|--------------------------|-----------------------------|
|--------------------------|-----------------------------|
|--------------------------|-----------------------------|
|--(7)--7--9--7--7-7--9--7-|--(7)-----7--9--7--7-7--7--7-|
|--(5)--5--5--5--5-5--5--5-|--(5)-----5--5--5--5-5--5--5-|
|--------------------------|-----------------------------|


  B
   Q       E  E  +E      E  Q
|-----------------------17---------|
|---------17-----------------------|
|-16b18------16-(16)b18----16b18---|
|----------------------------------|
|----------------------------------|
|----------------------------------|
|
|  E    E  E  E   E      E  E    E
|----------------------------------|
|----------------------------------|
|--4----4--4--4---4------4--4----4-|
|--4----4--4--4---4------4--4----4-|
|--2----2--2--2---2------2--2----2-|
|----------------------------------|


  E                                D
                      ~~~~~~~~~~~
   E  E     +E   E E  E     E  E    E     E  E  E     E  E  E     E
|--------------------------------|----------------------------------|
|-17-----------------17----17-17-|-17----17-17-17----17-17-17----17-|
|----16b18-(16)-14---16b18-16-16-|-16b18-16-16-16b18-16-16-16b18-16-|
|--------------------------------|----------------------------------|
|--------------------------------|----------------------------------|
|--------------------------------|----------------------------------|
|
|  E  E     +E   E E  E     E  E    E     E  E  E     E  E  E     E
|--------------------------------|----------------------------------|
|--------------------------------|----------------------------------|
|--9--9-----(9)--9-9--9-----9--9-|----------------------------------|
|--9--9-----(9)--9-9--9-----9--9-|--7-----7--9--7-----7--7--9-----7-|
|--7--7-----(7)--7-7--7-----7--7-|--5-----5--5--5-----5--5--5-----5-|
|--------------------------------|----------------------------------|


                                      A
                  |------3-------|
   E  E     E  E  E      +E      E  E  E    Q     E  E  E     S  S  S  S  S  S
|----------------------------------------|-------------------14-14-------------|
|-17-17----17-17-17-----(17)-------------|-------------------------17p14-14-14-|
|-16-16b18-16-16-16b18==(16)rp==14-16-14-|-14-------14-16b18-------------------|
|----------------------------------------|-------16----------------------------|
|----------------------------------------|-------------------------------------|
|----------------------------------------|-------------------------------------|
|
|  E  E     E  E  E           E     E  E   +E  E  E  E  E     E     E     E
|----------------------------------------|-------------------------------------|
|----------------------------------------|-------------------------------------|
|----------------------------------------|--------------------------------2----|
|--7--7-----9--7--7-----------7-----7--2-|-(2)-2--------2-----4----------------|
|--5--5-----5--5--5-----------5-----5--0-|-(0)-0--3--4--0-----0-----0----------|
|----------------------------------------|-------------------------------------|


                                            D
   E     S  S  S  S  S  S  S  S  S  S  S  S  S  S
|-------14-14-17p14----14-17p14-17p14----14-17p14-|
|-17b19-------------17----------------17----------|
|-------------------------------------------------|
|-------------------------------------------------|
|-------------------------------------------------|
|-------------------------------------------------|
|
| +E     E     E     E     E     E     E     E
|-------------------------------------------------|
|-------------------------------------------------|
|-(2)----2----------------------------------------|
|--------2-----------------2-----4-----------7----|
|--------0-----3-----4-----0-----0-----------5----|
|-------------------------------------------------|


   S   S  S  S  S  S  S  S  S  S  S  S  S  S  S  S
|-17p=14-17p14-17p14-17p14----14-17p14-17p14----17-|
|--------------------------17----------------14----|
|--------------------------------------------------|
|--------------------------------------------------|
|--------------------------------------------------|
|--------------------------------------------------|
|
| +E      E     E     E     E     E     E     E
|--------------------------------------------------|
|--------------------------------------------------|
|--------------------------------------------------|
|-(7)-----7-----9-----7-----7-----7-----9-----7----|
|-(5)-----5-----5-----5-----5-----5-----5-----5----|
|--------------------------------------------------|


   S   S  S  S  S  S  S  S  S  S  E  E  E
|-17p=14-17p14----14--------------------------|
|--------------17----17p14-17p14----14--------|
|--------------------------------16----16b18--|
|---------------------------------------------|
|---------------------------------------------|
|---------------------------------------------|
|
| +E      E     E     E     E     E  E  E
|---------------------------------------------|
|---------------------------------------------|
|---------------------------------------------|
|-(7)-----7-----9-----7-----7-----7--7--7-----|
|-(5)-----5-----5-----5-----5-----5--5--5-----|
|---------------------------------------------|


                                                D.S. al Coda
  B
   E  E  S  S  E     E  S      +S    E  E    Q  Q   Q   Q
|----14-----------------------------------|------------------||
|-14----17p14-------14--------------14-14-|------------------||
|-------------16b18----16b18==(16)r-------|-16--x\--xS==x----||
|-----------------------------------------|-----x\--xS==x----||
|-----------------------------------------|-----x\--xS==x----||
|-----------------------------------------|------------------||
|
|  E  E  E     E     E  E            E  E    Q  Q   E E E E
|-----------------------------------------|------------------||
|-----------------------------------------|------------------||
|--4--4--4-----4-----4--4------------4--4-|--9------9---9----||
|--4--4--4-----4-----4--4------------4--4-|--9------9---9----||
|--2--2--2-----2-----2--2------------2--2-|--7------7---7----||
|-----------------------------------------|------------------||


                                              Chorus
  &
  A
  Gtrs I, II
   E  E E E E E E   E   +E  E E E E E E   E    +E  E E E E E E E
|---------------------|---------------------||-------------------|
|---------------------|---------------------||-------------------|
|-------------------2-|-(2)-----------------||-------------------|
|-(2)---4-2-4-2-----2-|-(2)---4-2-4-2-----2-||-(2)---4---2-4---2-|
|-(0)-0-0-0-0-0-3b4-0-|-(0)-0-0-0-0-0-3b4-0-||-(0)-0-0-0-0-0-0-0-|
|---------------------|---------------------||-------------------|


                  B                                     D
  +E  E E E E E E E   +Q   E E E E E E   +Q   E E E E E E
|-------------------|------------------|------------------|
|-------------------|------------------|------------------|
|-------------------|------------------|------------------|
|-(2)---4---2-4---4-|-(4)--6-4-4-6---4-|-(4)--6-4-4-6---7-|
|-(0)-0-0-0-0-0-0-2-|-(2)--2-2-2-2-2-2-|-(2)--2-2-2-2-2-5-|
|-------------------|------------------|------------------|


                  E                    A
  +E  E E E E E E E   +E  E  E E E E E E   +E  E E E E E E   E
|-------------------|--------------------|---------------------|
|-------------------|--------------------|---------------------|
|-------------------|------------------2-|-(2)---------------2-|
|-(7)---7-7-7-7-7-9-|-(9)-9-11-9-9-9-9-2-|-(2)---4-2-4-2-----2-|
|-(5)-5-5-5-5-5-5-7-|-(7)-7--7-7-7-7-7-0-|-(0)-0-0-0-0-0-3b4-0-|
|-------------------|--------------------|---------------------|


  +E  E E E E E E   E   +E  E E E E E E E
|---------------------|-------------------|
|---------------------|-------------------|
|-(2)-----------------|-----------------2-|
|-(2)---4-2-4-2-----2-|-(2)---4-2-2-4---2-|
|-(0)-0-0-0-0-0-3b4-0-|-(0)-0-0-0-0-0-0-0-|
|---------------------|-------------------|


                      B
  +E  E E E E E E E   E E E E E E E E
|-------------------|------------------|
|-------------------|------------------|
|-(2)-2-2-2-2-2-2-2-|------------------|
|-(2)-2-2-2-2-2-2-2-|-4-4-6-4-4-4-6-4--|
|-(0)-0-0-0-0-0-0-0-|-2-2-2-2-2-2-2-2--|
|-------------------|------------------|


                  D                       E
  +E  E E E E E E E   +E  E E E E E E E   E E Q  H
|-------------------|-------------------|-------------||
|-------------------|-------------------|-------------||
|-------------------|-----------7-7-7-7-|-9-----------||
|-(4)-4-6-4-4-4-6-7-|-(7)-7-7-7-7-7-7-7-|-9-----------||
|-(2)-2-2-2-2-2-2-5-|-(5)-5-5-5-5-5-5-5-|-7-----------||
|-------------------|-------------------|-0-----------||


 Outro
  N.C.                                                  A
  Gtr I
  E  E     +E      E  E  E  a  E  E    a  E  E  E  E Q   S  S  S  S
|-----------------------------------|-------------------17p14-17p14-|
|---15----(15)----15-16-14----------|-------------------------------|
|---14b16r(14)----14-16-14----------|-------------------------------|
|--------------------------14h16-14-|-14h16-14----------------------|
|-----------------------------------|----------15-------------------|
|-----------------------------------|-------------17----------------|
|
| Gtr II
| E  E      S +S   E  E  E  a  E  E    a  E  E  E  E Q   Q
|-----------------------------------|-------------------------------|
|----5----------------4--2----------|--------------------2----------|
|----4b6====4r(4)--2--4--2----------|--------------------2----------|
|---------------------------2h=4--2-|--2h=4--2-----------2----------|
|-----------------------------------|-----------3--0-----0----------|
|-----------------------------------|-------------------------------|


   S   S  S  S  S  S  S  S  S  S  S  S  S  S  S  S
|-----14-------------------------------------------|
|-17-----17p14-17p14----14-------------------------|
|--------------------16----16p14-16p14----14-------|
|--------------------------------------16----16p14-|
|--------------------------------------------------|
|--------------------------------------------------|
|
| +W
|--------------------------------------------------|
|-(2)----------------------------------------------|
|-(2)----------------------------------------------|
|-(2)----------------------------------------------|
|-(0)----------------------------------------------|
|--------------------------------------------------|


                                                     A
                                        |---3----|
   S   S  S  S  S  S  S  S  S  S  S  S  E     E  E    +Q    Q  H
|-----------------------------------------------17-|-(17)\----------*|
|--------------------------------------------17----|----------------*|
|-----------------------------------14-16b18-------|----------------*|
|-16p=14----14----------------14-16----------------|----------------*|
|--------16----16p14----14-16----------------------|----------------*|
|--------------------17----------------------------|----------------*|
|
| +W                                                   Q    Q  H
|--------------------------------------------------|----------------*|
|-(2)----------------------------------------------|---2------------*|
|-(2)----------------------------------------------|---2------------*|
|-(2)----------------------------------------------|---2------------*|
|-(0)----------------------------------------------|---0------------*|
|--------------------------------------------------|----------------*|


Duration Legend
---------------
W - whole; H - half; Q - quarter; E - 8th; S - 16th; T - 32nd; X - 64th; a - acciaccatura
+ - note tied to previous; . - note dotted; .. - note double dotted
Uncapitalized letters represent notes that are staccato (1/2 duration)
Irregular groupings are notated above the duration line
Duration letters will always appear directly above the note/fret number it represents the
duration for.  Duration letters with no fret number below them represent rests.  Multi-
bar rests are notated in the form Wxn, where n is the number of bars to rest for.  Low
melody durations appear below the staff

Tablature Legend
----------------
 h   - hammer-on
 p   - pull-off
 b   - bend
 pb  - pre-bend
 r   - bend release (if no number after the r, then release immediately)
 /\  - slide into or out of (from/to "nowhere")
 s   - legato slide
 S   - shift slide
  - natural harmonic
[n]  - artificial harmonic
n(n) - tapped harmonic
 ~   - vibrato
 tr  - trill
 T   - tap
 TP  - trem. picking
 PM  - palm muting
\n/  - tremolo bar dip; n = amount to dip
 \n  - tremolo bar down
 n/  - tremolo bar up
/n\  - tremolo bar inverted dip
 =   - hold bend; also acts as connecting device for hammers/pulls
 <>  - volume swell (louder/softer)
 x   - on rhythm slash represents muted slash
 o   - on rhythm slash represents single note slash

Misc Legend
-----------
 |  - bar
||  - double bar
||o - repeat start
o|| - repeat end
*|  - double bar (ending)
 :  - bar (freetime)
 $  - Segno
 &  - Coda
Tempo markers -  = BPM(8/16=s8/s16), where s8 = swing 8ths, s16 = swing 16ths


***************************************************************************************
***************************************************************************************





Comments


Popular Molly Hatchet tabs & chords
Mississippi Moon Dog Drum Tabs
Ain't Even Close Tabs
Beatin' The Odds Tabs
Bloody Reunion Tabs
Dreams I'll Never See Tabs
Dreams Ill Never See Tabs
Fall Of The Peacemakers Tabs
Long Time Intro Intro Tabs
No Stanger In The Darkness Tabs
One Man's Pleasure Tabs


Song lyrics



↑ Back to top | Tablatures and chords are parodies/interpretations of the original songs. You may use it for private study, scholarship, research or language learning purposes only
© 2014 AZChords.com Contact us | Privacy policy | DMCA | Add/correct tabs | Request tabs | Top 50 tabs