» » »

Molly Hatchet, One Man's Pleasure Bass tabs (ver.1)

Artists:  A B C D E F G H I J K L M N O P Q R S T U V W X Y Z # 

One Man's Pleasure Bass tabs (ver.1)

Molly Hatchet Tabs
 Rating:
4/5 (4 votes)
One Man's Pleasure lessons Tabs too difficult? Try these video lessons and learn fast
                Band: Molly Hatchet

     W                   W                   H        Q    S  E.    
G||-------------------|-------------------|------------------------|
D||-------------------|-------------------|------------------------|
A||-------------------|-------------------|------------------------|
E||-------------------|-------------------|------------------12\---|


  Q    Q    Q    Q       Q    Q    E.  S E  E     Q    Q    Q    Q     
----------------------|------------------------|----------------------|
----------------------|------------------------|----------------------|
----------------------|------------------3--3--|----------------------|
--5----0----5----0----|--5----0----5---5-------|--5----0----5----0----|


  E.  S  S S  S S E  S S E  E     Q    Q    Q    Q       Q    Q    E.  S E  E   
-------------------------------|----------------------|------------------------|
----------------7-L------------|----------------------|------------------------|
-----------7h-9------9-7-------|----------------------|------------------3--3--|
--5---8h-9---------------8--8--|--5----0----5----0----|--5----0----5---5-------|


  Q    Q    Q    Q       E.  S  S S  S S E  S S E  E     Q    Q    Q    Q     
----------------------|-------------------------------|----------------------|
----------------------|----------------7-L------------|----------------------|
----------------------|-----------7h-9------9-7-------|----------------------|
--5----0----5----0----|--5---8h-9---------------8--8--|--5----0----5----0----|


  Q    Q    E.  S E  E     Q    Q    Q    Q       E.  S  S S  S S E  S S E  E   
------------------------|----------------------|-------------------------------|
------------------------|----------------------|----------------7-L------------|
------------------3--3--|----------------------|-----------7h-9------9-7-------|
--5----0----5---5-------|--5----0----5----0----|--5---8h-9---------------8--8--|


  Q    Q    Q    Q       Q    Q    E.  S E  E     Q    Q    Q    Q     
----------------------|------------------------|----------------------|
----------------------|------------------------|----------------------|
----------------------|------------------3--3--|----------------------|
--5----0----5----0----|--5----0----5---5-------|--5----0----5----0----|


  Q    Q    E.  S E  E     Q    Q    Q    Q       Q    Q    E.  S E  E   
------------------------|----------------------|------------------------|
------------------------|----------------------|------------------------|
------------------3--3--|----------------------|------------------3--3--|
--5----0----5---5-------|--5----0----5----0----|--5----0----5---5-------|


  Q    Q    Q    Q       E.  S  S S  S S E  S S E  S S  
----------------------|--------------------------------|
----------------------|----------------7-L-------------|
----------------------|-----------7h-9------9-7--------|
--5----0----5----0----|--5---8h-9---------------8--8-5-|


  Q    S  S E  E.  S S  S E     Q    Q    Q    Q     
-----------------------------|----------------------|
--------------------------9--|----------------------|
------------7--5---5-7h-9----|----------------------|
--3----7h-9------------------|--5----0----5----0----|


  E.  S  S S  S S E  S S E  S S    Q    S  S E  E.  S S  S E   
--------------------------------|-----------------------------|
----------------7-L-------------|--------------------------9--|
-----------7h-9------9-7--------|------------7--5---5-7h-9----|
--5---8h-9---------------8--8-5-|--3----7h-9------------------|


  Q    Q    Q    Q       E  S S S S S  S E  E  Q       Q    Q    Q    Q     
----------------------|-----------------------------|----------------------|
----------------------|-----7-5-4-------------------|----------------------|
----------------------|-----------7-3h-4----5--L----|----------------------|
--5----0----5----0----|--5---------------5----------|--5----0----5----0----|


  Q    Q    E.  S E  E     Q    Q    Q    Q       Q    Q    E.  S E  E   
------------------------|----------------------|------------------------|
------------------------|----------------------|------------------------|
------------------3--3--|----------------------|------------------3--3--|
--5----0----5---5-------|--5----0----5----0----|--5----0----5---5-------|


  Q    Q    Q    Q       Q    Q    E.  S E  E     Q    Q    Q    Q     
----------------------|------------------------|----------------------|
----------------------|------------------------|----------------------|
--5---------5---------|--5---------5-----3--3--|----------------------|
-------5---------5----|-------5--------5-------|--5----0----5----0----|


  E.  S  S S  S S E  S S E  S S    Q    S  S E  E.  S S  S E   
--------------------------------|-----------------------------|
----------------7-L-------------|--------------------------9--|
-----------7h-9------9-7--------|------------7--5---5-7h-9----|
--5---8h-9---------------8--8-5-|--3----7h-9------------------|


  Q    Q    Q    Q       E.  S  S S  S S E  S S E  S S  
----------------------|--------------------------------|
----------------------|----------------7-L-------------|
----------------------|-----------7h-9------9-7--------|
--5----0----5----0----|--5---8h-9---------------8--8-5-|


  Q    S  S E  E.  S S  S E     Q    Q    Q    Q     
-----------------------------|----------------------|
--------------------------9--|----------------------|
------------7--5---5-7h-9----|----------------------|
--3----7h-9------------------|--5----0----5----0----|


  E  S S S S S  S E  E  S E.     E.  S E  E     Q    S  S S S S S E  S E.   
------------------------------|--------------|-----------------------------|
-----7-5-4--------------------|--------------|-----------------------------|
-----------7-3h-4----5--L-----|--5--------5--|-------4p-2---5-L-5----4-7---|
--5---------------5-------5---|------5-L-----|--0---------0-------3--------|


  E  E  S  S S S E  E  S E.     E  E  S  S S S S S E  S E.   
-----------------------------|------------------------------|
-----------------------------|------------------------------|
--------4p-2---5----5--L-----|--------4p-2---5-L-5----4-7---|
--0--0-------0-----------5---|--0--0-------0-------3--------|


  E  E  S  S S S E  E  S E.     E  E  S  S S S S S E  S E.   
-----------------------------|------------------------------|
-----------------------------|------------------------------|
--------4p-2---5----5--L-----|--------4p-2---5-L-5----4-7---|
--0--0-------0-----------5---|--0--0-------0-------3--------|


  E  E  S  S S S E  E  S E.     E  E  S  S S S S S E  S E.   
-----------------------------|------------------------------|
-----------------------------|------------------------------|
--------4p-2---5----5--L-----|--------4p-2---5-L-5----4-7---|
--0--0-------0-----------5---|--0--0-------0-------3--------|


  E  E  S  S S S E  E  S E.     E.  S E  E  E     Q    Q    Q    Q     
-----------------------------|-----------------|----------------------|
-----------------------------|-----------------|----------------------|
--------4p-2---5----5--L-----|--5--------5-----|--7---------7---------|
--0--0-------0-----------5---|------5-L-----5--|-------7---------7----|


  Q    Q    E  E  S E.     Q    Q    Q    Q       Q    Q    E  E  S E.   
------------------------|----------------------|------------------------|
------------------------|----------------------|------------------------|
--7---------7--5--L-----|--7---------7---------|--7---------7--5--L-----|
-------7------------5---|-------7---------7----|-------7------------5---|


  Q    Q    Q    Q       Q    Q    E  E  S E.     Q    Q    Q    Q     
----------------------|------------------------|----------------------|
----------------------|------------------------|----------------------|
--7---------7---------|--7---------7--5--L-----|--7---------7---------|
-------7---------7----|-------7------------5---|-------7---------7----|


  Q    Q    E  E  S E.     E.  S E  E  E     W                 
------------------------|-----------------|-------------------|
------------------------|-----------------|-------------------|
--7---------7--5--L-----|--5--------5-----|-------------------|
-------7------------5---|------5-L-----5--|--0----------------|


  W                   H.           S  E.      Q    Q    Q    Q     
-------------------|-----------------------|----------------------|
-------------------|-----------------------|----------------------|
-------------------|-----------------------|----------------------|
--L----------------|--L------------L-12\---|--5----0----5----0----|


  Q    Q    E.  S E  E     Q    Q    Q    Q       E.  S  S S  S S E  S S E  E   
------------------------|----------------------|-------------------------------|
------------------------|----------------------|----------------7-L------------|
------------------3--3--|----------------------|-----------7h-9------9-7-------|
--5----0----5---5-------|--5----0----5----0----|--5---8h-9---------------8--8--|


  Q    Q    Q    Q       Q    Q    E.  S E  E     Q    Q    Q    Q     
----------------------|------------------------|----------------------|
----------------------|------------------------|----------------------|
----------------------|------------------3--3--|----------------------|
--5----0----5----0----|--5----0----5---5-------|--5----0----5----0----|


  Q    Q    E.  S E  E     Q    Q    Q    Q       Q    Q    E.  S E  E   
------------------------|----------------------|------------------------|
------------------------|----------------------|------------------------|
------------------3--3--|--5---------5---------|--5---------5-----3--3--|
--5----0----5---5-------|-------5---------5----|-------5--------5-------|


  Q    Q    Q    Q       E.  S  S S  S S E  S S E  S S  
----------------------|--------------------------------|
----------------------|----------------7-L-------------|
----------------------|-----------7h-9------9-7--------|
--5----0----5----0----|--5---8h-9---------------8--8-5-|


  Q    S  S E  E.  S S  S E     Q    Q    Q    Q     
-----------------------------|----------------------|
--------------------------9--|----------------------|
------------7--5---5-7h-9----|----------------------|
--3----7h-9------------------|--5----0----5----0----|


  E.  S  S S  S S E  S S E  S S    Q    S  S E  E.  S S  S E   
--------------------------------|-----------------------------|
----------------7-L-------------|--------------------------9--|
-----------7h-9------9-7--------|------------7--5---5-7h-9----|
--5---8h-9---------------8--8-5-|--3----7h-9------------------|


  Q    Q    Q    Q       E.  S  S S  S S E  S S E  S S  
----------------------|--------------------------------|
----------------------|----------------7-L-------------|
----------------------|-----------7h-9------9-7--------|
--5----0----5----0----|--5---8h-9---------------8--8-5-|


  Q    S  S E  E.  S S  S E     Q    Q    Q    Q     
-----------------------------|----------------------|
--------------------------9--|----------------------|
------------7--5---5-7h-9----|----------------------|
--3----7h-9------------------|--5----0----5----0----|


  E.  S  S S  S S E  S S E  S S    Q    S  S E  E.  S S  S E   
--------------------------------|-----------------------------|
----------------7-L-------------|--------------------------9--|
-----------7h-9------9-7--------|------------7--5---5-7h-9----|
--5---8h-9---------------8--8-5-|--3----7h-9------------------|


  Q    Q    Q    Q       E  S S S S S  S E  E  Q     
----------------------|-----------------------------|
----------------------|-----7-5-4-------------------|
----------------------|-----------7-3h-4----5--L----|
--5----0----5----0----|--5---------------5----------|


  H        S S S S S S S S     S S S  S Q    H          
----------------------------|-------------------------||
-----------7-5-4---5-4------|----2--------------------||
--L--------------7-----7-3b-|--L---3h-4-0-------------||
----------------------------|-------------------------||




Duration Legend
---------------
W - whole
H - half
Q - quarter
E - 8th
S - 16th
T - 32nd
X - 64th
. - note dotted
|-n-|  - n-tuplets


Tablature Legend
----------------
L - tied note
x - dead note
g - grace note
(n) - ghost note
> - accentuded note
NH - natural harmonic
AH - artificial harmonic
TH - tapped harmonic
SH - semi harmonic
PH - pitch harmonic
h - hammer on
p - pull off
b - bend
br - bendRelease
pb - preBend
pbr - preBendRelease
brb - bendReleaseBend
\n/ - tremolo bar dip
\n - tremolo bar dive
-/n - tremolo bar Release up
/n\ - tremolo bar inverted dip
/n - tremolo bar return
-\n - tremolo bar Release down
S - shift slide
s - legato slide
/ -  slide into from below or out of upwards
\ -  slide into from above or out of downwards
~ - vibrato
W - wide vibrato
tr - trill
TP - tremolo picking
T - tapping
S - slap
P - pop
< - fade in
^ - brush up
v - brush down
            
Submit corrections

comments powered by Disqus
↑ Back to top | Molly Hatchet Bass for One Man's Pleasure. Lyrics for acoustic guitar and electric guitar. Tablatures and chords are parodies/interpretations of the original songs. You may use it for private study, scholarship, research or language learning purposes only