>
 >
One Man's Pleasure

One Man's Pleasure Guitar Tabs

Molly Hatchet - One Man's Pleasure chords, tabs, tablatures, lyrics

Guitar lessons | Add/correct | Request | Top 50 tabs Artists:  A B C D E F G H I J K L M N O P Q R S T U V W X Y Z 0-9

One Man's Pleasure Guitar Tabs – Molly Hatchet

CD, Sheet music, Poster

Do you like One Man's Pleasure? Share with your friends now
Bass TabsTabs
Band/Artist: Molly Hatchet




Rhythm - left
This is revision #1 (May 23, 2008).



     W                   W                   W                 
E||-------------------|-------------------|-------------------|
B||-------------------|-------------------|-------------------|
G||-------------------|-------------------|-------------------|
D||-------------------|-------------------|-------------------|
A||-------------------|-------------------|-------------------|
E||-------------------|-------------------|-------------------|


  W                   W                   W                   W                 
-------------------|-------------------|-------------------|-------------------|
-------------------|-------------------|-------------------|-------------------|
-------------------|-------------------|-------------------|-------------------|
-------------------|-------------------|-------------------|-------------------|
-------------------|-------------------|-------------------|-------------------|
-------------------|-------------------|-------------------|-------------------|


        PM   PM PM   PM   PM                  PM   PM         PM          
  E  E  S  S S  S  S S  S S  S  S E     E  E  S  S S  S  E  S S  E   E    
-------------------------------------|-----------------------------------|
-------------------------------------|-----------------------------------|
----------------------------------2--|----------------2~-L---------------|
-----2-----4-------5----4---------2--|-----2-----4----------4------------|
--0-----0----0--0----0----0--3h-4----|--0-----0----0----------0--3b--3b--|
-------------------------------------|-----------------------------------|


        PM   PM PM   PM   PM                  PM   PM         PM          
  E  E  S  S S  S  S S  S S  S  S E     E  E  S  S S  S  E  S S  E   E    
-------------------------------------|-----------------------------------|
-------------------------------------|-----------------------------------|
----------------------------------2--|----------------2~-L---------------|
-----2-----4-------5----4---------2--|-----2-----4----------4------------|
--0-----0----0--0----0----0--3h-4----|--0-----0----0----------0--3b--3b--|
-------------------------------------|-----------------------------------|


        PM   PM PM   PM   PM                  PM   PM         PM          
  E  E  S  S S  S  S S  S S  S  S E     E  E  S  S S  S  E  S S  E   E    
-------------------------------------|-----------------------------------|
-------------------------------------|-----------------------------------|
----------------------------------2--|----------------2~-L---------------|
-----2-----4-------5----4---------2--|-----2-----4----------4------------|
--0-----0----0--0----0----0--3h-4----|--0-----0----0----------0--3b--3b--|
-------------------------------------|-----------------------------------|


        PM   PM PM   PM   PM                  PM   PM         PM          
  E  E  S  S S  S  S S  S S  S  S E     E  E  S  S S  S  E  S S  E   E    
-------------------------------------|-----------------------------------|
-------------------------------------|-----------------------------------|
----------------------------------2--|----------------2~-L---------------|
-----2-----4-------5----4---------2--|-----2-----4----------4------------|
--0-----0----0--0----0----0--3h-4----|--0-----0----0----------0--3b--3b--|
-------------------------------------|-----------------------------------|


        PM   PM PM   PM   PM                  PM   PM         PM          
  E  E  S  S S  S  S S  S S  S  S E     E  E  S  S S  S  E  S S  E   E    
-------------------------------------|-----------------------------------|
-------------------------------------|-----------------------------------|
----------------------------------2--|----------------2~-L---------------|
-----2-----4-------5----4---------2--|-----2-----4----------4------------|
--0-----0----0--0----0----0--3h-4----|--0-----0----0----------0--3b--3b--|
-------------------------------------|-----------------------------------|


        PM   PM PM   PM   PM                  PM   PM         PM          
  E  E  S  S S  S  S S  S S  S  S E     E  E  S  S S  S  E  S S  E   E    
-------------------------------------|-----------------------------------|
-------------------------------------|-----------------------------------|
----------------------------------2--|----------------2~-L---------------|
-----2-----4-------5----4---------2--|-----2-----4----------4----4b--4b--|
--0-----0----0--0----0----0--3h-4----|--0-----0----0----------0----------|
-------------------------------------|-----------------------------------|


        PM   PM PM   PM   PM                  PM   PM         PM          
  E  E  S  S S  S  S S  S S  S  S E     E  E  S  S S  S  E  S S  E   E    
-------------------------------------|-----------------------------------|
-------------------------------------|-----------------------------------|
----------------------------------2--|----------------2~-L---------------|
-----2-----4-------5----4---------2--|-----2-----4----------4------------|
--0-----0----0--0----0----0--3h-4----|--0-----0----0----------0--3b--3b--|
-------------------------------------|-----------------------------------|


        PM   PM PM   PM   PM                  PM   PM         PM          
  E  E  S  S S  S  S S  S S  S  S E     E  E  S  S S  S  E  S S  E   E    
-------------------------------------|-----------------------------------|
-------------------------------------|-----------------------------------|
----------------------------------2--|----------------2~-L---------------|
-----2-----4-------5----4---------2--|-----2-----4----------4----4b--4b--|
--0-----0----0--0----0----0--3h-4----|--0-----0----0----------0----------|
-------------------------------------|-----------------------------------|


  PM                                   PM   PM PM   PM   PM          
  E  E   S S E  E  E   S S E     E  E  S  S S  S  S S  S S  S  S E   
------------------------------|-------------------------------------|
------------------------------|-------------------------------------|
------------------------------|----------------------------------2--|
----------------7--7-----7-9--|-----2-----4-------5----4---------2--|
--5--5-----5-7--5--5--/9------|--0-----0----0--0----0----0--3h-4----|
--3--3--/7--------------------|-------------------------------------|


        PM   PM         PM            PM                           
  E  E  S  S S  S  E  S S  E   E      E  E   S S E  E  E   S S E   
-----------------------------------|------------------------------|
-----------------------------------|------------------------------|
----------------2~-L---------------|------------------------------|
-----2-----4----------4------------|----------------7--7-----7-9--|
--0-----0----0----------0--3b--3b--|--5--5-----5-7--5--5--/9------|
-----------------------------------|--3--3--/7--------------------|


        PM   PM PM   PM   PM                                        
  E  E  S  S S  S  S S  S S  S  S E     E  S S S S S  S E  E  Q     
-------------------------------------|-----------------------------|
-------------------------------------|-----------------------------|
----------------------------------2--|-----------------------------|
-----2-----4-------5----4---------2--|-----7-5-4-----------7--L----|
--0-----0----0--0----0----0--3h-4----|--0--------7-3h-4-0--5--L----|
-------------------------------------|-----------------------------|


        PM   PM PM   PM   PM                  PM   PM         PM          
  E  E  S  S S  S  S S  S S  S  S E     E  E  S  S S  S  E  S S  E   E    
-------------------------------------|-----------------------------------|
-------------------------------------|-----------------------------------|
----------------------------------2--|----------------2~-L---------------|
-----2-----4-------5----4---------2--|-----2-----4----------4------------|
--0-----0----0--0----0----0--3h-4----|--0-----0----0----------0--3b--3b--|
-------------------------------------|-----------------------------------|


        PM   PM PM   PM   PM                  PM   PM         PM          
  E  E  S  S S  S  S S  S S  S  S E     E  E  S  S S  S  E  S S  E   E    
-------------------------------------|-----------------------------------|
-------------------------------------|-----------------------------------|
----------------------------------2--|----------------2~-L---------------|
-----2-----4-------5----4---------2--|-----2-----4----------4----4b--4b--|
--0-----0----0--0----0----0--3h-4----|--0-----0----0----------0----------|
-------------------------------------|-----------------------------------|


        PM   PM                         PM   PM                    
  E  E  S  S E  E  S S S  S E     E  E  S  S S  S  E  S S E   E    
-------------------------------|----------------------------------|
----------------------------3--|----------------3~-L--------------|
-----2-----4----5--4-----------|-----2-----4----------4-----------|
--0-----0----0-------0-3p-0----|--0-----0----0----------0-3b--3b--|
-------------------------------|----------------------------------|
-------------------------------|----------------------------------|


        PM   PM PM   PM   PM                  PM   PM        PM          
  E  E  S  S S  S  S S  S S  S  S E     E  E  S  S S  S E  S S  E  S  S  
-------------------------------------|----------------------------------|
-------------------------------------|----------------------------------|
----------------------------------2--|----------------2-L---------------|
-----2-----4-------5----4---------2--|-----2-----4---------4------------|
--0-----0----0--0----0----0--3h-4----|--0-----0----0---------0--3--3p-0-|
-------------------------------------|----------------------------------|


  PM                                   PM   PM PM   PM   PM          
  E  E   S S E  E  E   S S E     E  E  S  S S  S  S S  S S  S  S E   
------------------------------|-------------------------------------|
------------------------------|-------------------------------------|
------------------------------|----------------------------------2--|
----------------7--7-----7-9--|-----2-----4-------5----4---------2--|
--5--5-----5-7--5--5--/9------|--0-----0----0--0----0----0--3h-4----|
--3--3--/7--------------------|-------------------------------------|


        PM   PM         PM            PM                           
  E  E  S  S S  S  E  S S  E   E      E  E   S S E  E  E   S S E   
-----------------------------------|------------------------------|
-----------------------------------|------------------------------|
----------------2~-L---------------|------------------------------|
-----2-----4----------4------------|----------------7--7-----7-9--|
--0-----0----0----------0--3b--3b--|--5--5-----5-7--5--5--/9------|
-----------------------------------|--3--3--/7--------------------|


        PM   PM PM   PM   PM                                         
  E  E  S  S S  S  S S  S S  S  S E     E  S S S S S  S E  E  S E.   
-------------------------------------|------------------------------|
-------------------------------------|------------------------------|
----------------------------------2--|------------------------------|
-----2-----4-------5----4---------2--|-----7-5-4-----------7--L-----|
--0-----0----0--0----0----0--3h-4----|--0--------7-3h-4-0--5--L-7---|
-------------------------------------|--------------------------5---|


                             >                                            
  E.  S E  E     E  E  S S S S E  E   S E.     E  E  S S S S E  E  S E.   
--------------|-----------------------------|----------------------------|
--------------|-----------------------------|----------------------------|
--------------|-----------------------------|----------------------------|
--7--------7--|-------------------------2---|-------------------7--L-----|
--5---7-L--5--|--2--2--4-----5--------4-----|--2--2--4-----5----5--L-7---|
------5-L-----|--0--0----0-0---0--3b--------|--0--0----0-0-----------5---|


              >                                            
  E  E  S S S S E  E   S E.     E  E  S S S S E  E  S E.   
-----------------------------|----------------------------|
-----------------------------|----------------------------|
-----------------------------|----------------------------|
-------------------------2---|-------------------7--L-----|
--2--2--4-----5--------4-----|--2--2--4-----5----5--L-7---|
--0--0----0-0---0--3b--------|--0--0----0-0-----------5---|


              >                                            
  E  E  S S S S E  E   S E.     E  E  S S S S E  E  S E.   
-----------------------------|----------------------------|
-----------------------------|----------------------------|
-----------------------------|----------------------------|
-------------------------2---|-------------------7--L-----|
--2--2--4-----5--------4-----|--2--2--4-----5----5--L-7---|
--0--0----0-0---0--3b--------|--0--0----0-0-----------5---|


              >                                                              
  E  E  S S S S E  E   S E.     E  E  S S S S E  E  S E.     E.  S E  E  E   
-----------------------------|----------------------------|-----------------|
-----------------------------|----------------------------|-----------------|
-----------------------------|----------------------------|-----------------|
-------------------------2---|-------------------7--L-----|--7--------7-----|
--2--2--4-----5--------4-----|--2--2--4-----5----5--L-7---|--5---7-L--5--7--|
--0--0----0-0---0--3b--------|--0--0----0-0-----------5---|------5-L-----5--|


  E  E  S S E  S S E  S S E     S S E  S S E  E  E  S E.   
-----------------------------|----------------------------|
-----------------------------|----------------------------|
-----------------------------|----------------------------|
-----------------------------|-------------------7--L-----|
--2--2--x-2-2--x-2-2--x-2-2--|--x-2-2--x-2-2-----5--L-7---|
--0--0--x-0-0--x-0-0--x-0-0--|--x-0-0--x-0-0----------5---|


  E  E  S S E  S S E  S S E     S S E  S S E  E  E  S E.   
-----------------------------|----------------------------|
-----------------------------|----------------------------|
-----------------------------|----------------------------|
-----------------------------|-------------------7--L-----|
--2--2--x-2-2--x-2-2--x-2-2--|--x-2-2--x-2-2-----5--L-7---|
--0--0--x-0-0--x-0-0--x-0-0--|--x-0-0--x-0-0----------5---|


  E  E  S S E  S S E  S S E     S S E  S S E  E  E  S E.   
-----------------------------|----------------------------|
-----------------------------|----------------------------|
-----------------------------|----------------------------|
-----------------------------|-------------------7--L-----|
--2--2--x-2-2--x-2-2--x-2-2--|--x-2-2--x-2-2-----5--L-7---|
--0--0--x-0-0--x-0-0--x-0-0--|--x-0-0--x-0-0----------5---|


  E  E  S S E  S S E  S S E     S S E  S S E  E  E  S E.     E.  S E  E  E   
-----------------------------|----------------------------|-----------------|
-----------------------------|----------------------------|-----------------|
-----------------------------|----------------------------|-----------------|
-----------------------------|-------------------7--L-----|--7--------7-----|
--2--2--x-2-2--x-2-2--x-2-2--|--x-2-2--x-2-2-----5--L-7---|--5---7-L--5--7--|
--0--0--x-0-0--x-0-0--x-0-0--|--x-0-0--x-0-0----------5---|------5-L-----5--|


  W                   W                   W                 
-------------------|-------------------|-------------------|
-------------------|-------------------|-------------------|
-------------------|-------------------|-------------------|
-------------------|-------------------|-------------------|
--2----------------|--L----------------|--L----------------|
--0----------------|--L----------------|--L----------------|


        PM   PM PM   PM   PM                  PM   PM         PM          
  E  E  S  S S  S  S S  S S  S  S E     E  E  S  S S  S  E  S S  E   E    
-------------------------------------|-----------------------------------|
-------------------------------------|-----------------------------------|
----------------------------------2--|----------------2~-L---------------|
-----2-----4-------5----4---------2--|-----2-----4----------4------------|
--0-----0----0--0----0----0--3h-4----|--0-----0----0----------0--3b--3b--|
-------------------------------------|-----------------------------------|


        PM   PM PM   PM   PM                  PM   PM         PM          
  E  E  S  S S  S  S S  S S  S  S E     E  E  S  S S  S  E  S S  E   E    
-------------------------------------|-----------------------------------|
-------------------------------------|-----------------------------------|
----------------------------------2--|----------------2~-L---------------|
-----2-----4-------5----4---------2--|-----2-----4----------4------------|
--0-----0----0--0----0----0--3h-4----|--0-----0----0----------0--3b--3b--|
-------------------------------------|-----------------------------------|


        PM   PM PM   PM   PM                  PM   PM         PM          
  E  E  S  S S  S  S S  S S  S  S E     E  E  S  S S  S  E  S S  E   E    
-------------------------------------|-----------------------------------|
-------------------------------------|-----------------------------------|
----------------------------------2--|----------------2~-L---------------|
-----2-----4-------5----4---------2--|-----2-----4----------4------------|
--0-----0----0--0----0----0--3h-4----|--0-----0----0----------0--3b--3b--|
-------------------------------------|-----------------------------------|


        PM   PM PM   PM   PM                  PM   PM         PM          
  E  E  S  S S  S  S S  S S  S  S E     E  E  S  S S  S  E  S S  E   E    
-------------------------------------|-----------------------------------|
-------------------------------------|-----------------------------------|
----------------------------------2--|----------------2~-L---------------|
-----2-----4-------5----4---------2--|-----2-----4----------4----4b--4b--|
--0-----0----0--0----0----0--3h-4----|--0-----0----0----------0----------|
-------------------------------------|-----------------------------------|


        PM   PM                         PM   PM                    
  E  E  S  S E  E  S S S  S E     E  E  S  S S  S  E  S S E   E    
-------------------------------|----------------------------------|
----------------------------3--|----------------3~-L--------------|
-----2-----4----5--4-----------|-----2-----4----------4-----------|
--0-----0----0-------0-3p-0----|--0-----0----0----------0-3b--3b--|
-------------------------------|----------------------------------|
-------------------------------|----------------------------------|


        PM   PM PM   PM   PM                  PM   PM         PM          
  E  E  S  S S  S  S S  S S  S  S E     E  E  S  S S  S  E  S S  E   E    
-------------------------------------|-----------------------------------|
-------------------------------------|-----------------------------------|
----------------------------------2--|----------------2~-L---------------|
-----2-----4-------5----4---------2--|-----2-----4----------4------------|
--0-----0----0--0----0----0--3h-4----|--0-----0----0----------0--3b--3b--|
-------------------------------------|-----------------------------------|


  PM                                   PM   PM PM   PM   PM          
  E  E   S S E  E  E   S S E     E  E  S  S S  S  S S  S S  S  S E   
------------------------------|-------------------------------------|
------------------------------|-------------------------------------|
------------------------------|----------------------------------2--|
----------------7--7-----7-9--|-----2-----4-------5----4---------2--|
--5--5-----5-7--5--5--/9------|--0-----0----0--0----0----0--3h-4----|
--3--3--/7--------------------|-------------------------------------|


        PM   PM         PM            PM                           
  E  E  S  S S  S  E  S S  E   E      E  E   S S E  E  E   S S E   
-----------------------------------|------------------------------|
-----------------------------------|------------------------------|
----------------2~-L---------------|------------------------------|
-----2-----4----------4------------|----------------7--7-----7-9--|
--0-----0----0----------0--3b--3b--|--5--5-----5-7--5--5--/9------|
-----------------------------------|--3--3--/7--------------------|


        PM   PM PM   PM   PM                  PM   PM         PM          
  E  E  S  S S  S  S S  S S  S  S E     E  E  S  S S  S  E  S S  E   E    
-------------------------------------|-----------------------------------|
-------------------------------------|-----------------------------------|
----------------------------------2--|----------------2~-L---------------|
-----2-----4-------5----4---------2--|-----2-----4----------4------------|
--0-----0----0--0----0----0--3h-4----|--0-----0----0----------0--3b--3b--|
-------------------------------------|-----------------------------------|


  PM                                   PM   PM PM   PM   PM          
  E  E   S S E  E  E   S S E     E  E  S  S S  S  S S  S S  S  S E   
------------------------------|-------------------------------------|
------------------------------|-------------------------------------|
------------------------------|----------------------------------2--|
----------------7--7-----7-9--|-----2-----4-------5----4---------2--|
--5--5-----5-7--5--5--/9------|--0-----0----0--0----0----0--3h-4----|
--3--3--/7--------------------|-------------------------------------|


        PM   PM         PM            PM                           
  E  E  S  S S  S  E  S S  E   E      E  E   S S E  E  E   S S E   
-----------------------------------|------------------------------|
-----------------------------------|------------------------------|
----------------2~-L---------------|------------------------------|
-----2-----4----------4------------|----------------7--7-----7-9--|
--0-----0----0----------0--3b--3b--|--5--5-----5-7--5--5--/9------|
-----------------------------------|--3--3--/7--------------------|


        PM   PM PM   PM   PM                                        
  E  E  S  S S  S  S S  S S  S  S E     E  S S S S S  S E  E  Q     
-------------------------------------|-----------------------------|
-------------------------------------|-----------------------------|
----------------------------------2--|-----------------------------|
-----2-----4-------5----4---------2--|-----7-5-4-----------7--L----|
--0-----0----0--0----0----0--3h-4----|--0--------7-3h-4-0--5--L----|
-------------------------------------|-----------------------------|


  H        S S S S S S S S     S S S  S Q    H          
----------------------------|-------------------------||
----------------------------|-------------------------||
----------------------------|-------------------------||
--L--------7-5-4---5-4------|----2------2-------------||
--L--------------7-----7-3b-|--L---3h-4-0-------------||
----------------------------|-------------------------||










Rhythm - center
This is revision #1 (May 23, 2008).



     W                   W                   W                 
E||-------------------|-------------------|-------------------|
B||-------------------|-------------------|-------------------|
G||-------------------|-------------------|-------------------|
D||-------------------|-------------------|-------------------|
A||-------------------|-------------------|-------------------|
E||-------------------|-------------------|-------------------|


  W                   W                   W                   W                 
-------------------|-------------------|-------------------|-------------------|
-------------------|-------------------|-------------------|-------------------|
-------------------|-------------------|-------------------|-------------------|
-------------------|-------------------|-------------------|-------------------|
-------------------|-------------------|-------------------|-------------------|
-------------------|-------------------|-------------------|-------------------|


        PM   PM PM   PM   PM                  PM   PM         PM          
  E  E  S  S S  S  S S  S S  S  S E     E  E  S  S S  S  E  S S  E   E    
-------------------------------------|-----------------------------------|
-------------------------------------|-----------------------------------|
----------------------------------2--|----------------2~-L---------------|
-----2-----4-------5----4---------2--|-----2-----4----------4------------|
--0-----0----0--0----0----0--3h-4----|--0-----0----0----------0--3b--3b--|
-------------------------------------|-----------------------------------|


        PM   PM PM   PM   PM                  PM   PM         PM          
  E  E  S  S S  S  S S  S S  S  S E     E  E  S  S S  S  E  S S  E   E    
-------------------------------------|-----------------------------------|
-------------------------------------|-----------------------------------|
----------------------------------2--|----------------2~-L---------------|
-----2-----4-------5----4---------2--|-----2-----4----------4------------|
--0-----0----0--0----0----0--3h-4----|--0-----0----0----------0--3b--3b--|
-------------------------------------|-----------------------------------|


        PM   PM PM   PM   PM                  PM   PM         PM          
  E  E  S  S S  S  S S  S S  S  S E     E  E  S  S S  S  E  S S  E   E    
-------------------------------------|-----------------------------------|
-------------------------------------|-----------------------------------|
----------------------------------2--|----------------2~-L---------------|
-----2-----4-------5----4---------2--|-----2-----4----------4------------|
--0-----0----0--0----0----0--3h-4----|--0-----0----0----------0--3b--3b--|
-------------------------------------|-----------------------------------|


        PM   PM PM   PM   PM                  PM   PM         PM          
  E  E  S  S S  S  S S  S S  S  S E     E  E  S  S S  S  E  S S  E   E    
-------------------------------------|-----------------------------------|
-------------------------------------|-----------------------------------|
----------------------------------2--|----------------2~-L---------------|
-----2-----4-------5----4---------2--|-----2-----4----------4------------|
--0-----0----0--0----0----0--3h-4----|--0-----0----0----------0--3b--3b--|
-------------------------------------|-----------------------------------|


        PM   PM PM   PM   PM                  PM   PM         PM          
  E  E  S  S S  S  S S  S S  S  S E     E  E  S  S S  S  E  S S  E   E    
-------------------------------------|-----------------------------------|
-------------------------------------|-----------------------------------|
----------------------------------2--|----------------2~-L---------------|
-----2-----4-------5----4---------2--|-----2-----4----------4------------|
--0-----0----0--0----0----0--3h-4----|--0-----0----0----------0--3b--3b--|
-------------------------------------|-----------------------------------|


        PM   PM PM   PM   PM                  PM   PM         PM          
  E  E  S  S S  S  S S  S S  S  S E     E  E  S  S S  S  E  S S  E   E    
-------------------------------------|-----------------------------------|
-------------------------------------|-----------------------------------|
----------------------------------2--|----------------2~-L---------------|
-----2-----4-------5----4---------2--|-----2-----4----------4------------|
--0-----0----0--0----0----0--3h-4----|--0-----0----0----------0--3b--3b--|
-------------------------------------|-----------------------------------|


        PM   PM PM   PM   PM                  PM   PM         PM          
  E  E  S  S S  S  S S  S S  S  S E     E  E  S  S S  S  E  S S  E   E    
-------------------------------------|-----------------------------------|
-------------------------------------|-----------------------------------|
----------------------------------2--|----------------2~-L---------------|
-----2-----4-------5----4---------2--|-----2-----4----------4------------|
--0-----0----0--0----0----0--3h-4----|--0-----0----0----------0--3b--3b--|
-------------------------------------|-----------------------------------|


        PM   PM PM   PM   PM                  PM   PM        PM          
  E  E  S  S S  S  S S  S S  S  S E     E  E  S  S S  S E  S S  E  S  S  
-------------------------------------|----------------------------------|
-------------------------------------|----------------------------------|
----------------------------------2--|----------------2-L---------------|
-----2-----4-------5----4---------2--|-----2-----4---------4------------|
--0-----0----0--0----0----0--3h-4----|--0-----0----0---------0--3--3p-0-|
-------------------------------------|----------------------------------|


  PM                                   PM   PM PM   PM   PM          
  E  E   S S E  E  E   S S E     E  E  S  S S  S  S S  S S  S  S E   
------------------------------|-------------------------------------|
------------------------------|-------------------------------------|
------------------------------|----------------------------------2--|
----------------7--7-----7-9--|-----2-----4-------5----4---------2--|
--5--5-----5-7--5--5--/9------|--0-----0----0--0----0----0--3h-4----|
--3--3--/7--------------------|-------------------------------------|


        PM   PM         PM            PM                           
  E  E  S  S S  S  E  S S  E   E      E  E   S S E  E  E   S S E   
-----------------------------------|------------------------------|
-----------------------------------|------------------------------|
----------------2~-L---------------|------------------------------|
-----2-----4----------4------------|----------------7--7-----7-9--|
--0-----0----0----------0--3b--3b--|--5--5-----5-7--5--5--/9------|
-----------------------------------|--3--3--/7--------------------|


        PM   PM PM   PM   PM                                        
  E  E  S  S S  S  S S  S S  S  S E     E  S S S S S  S E  E  Q     
-------------------------------------|-----------------------------|
-------------------------------------|-----------------------------|
----------------------------------2--|-----------------------------|
-----2-----4-------5----4---------2--|-----7-5-4-----------7--L----|
--0-----0----0--0----0----0--3h-4----|--0--------7-3h-4-0--5--L----|
-------------------------------------|-----------------------------|


        PM   PM PM   PM   PM                  PM   PM         PM          
  E  E  S  S S  S  S S  S S  S  S E     E  E  S  S S  S  E  S S  E   E    
-------------------------------------|-----------------------------------|
-------------------------------------|-----------------------------------|
----------------------------------2--|----------------2~-L---------------|
-----2-----4-------5----4---------2--|-----2-----4----------4------------|
--0-----0----0--0----0----0--3h-4----|--0-----0----0----------0--3b--3b--|
-------------------------------------|-----------------------------------|


        PM   PM PM   PM   PM                  PM   PM         PM          
  E  E  S  S S  S  S S  S S  S  S E     E  E  S  S S  S  E  S S  E   E    
-------------------------------------|-----------------------------------|
-------------------------------------|-----------------------------------|
----------------------------------2--|----------------2~-L---------------|
-----2-----4-------5----4---------2--|-----2-----4----------4------------|
--0-----0----0--0----0----0--3h-4----|--0-----0----0----------0--3b--3b--|
-------------------------------------|-----------------------------------|


        PM   PM                         PM   PM                    
  E  E  S  S E  E  S S S  S E     E  E  S  S S  S  E  S S E   E    
-------------------------------|----------------------------------|
----------------------------3--|----------------3~-L--------------|
-----2-----4----5--4-----------|-----2-----4----------4-----------|
--0-----0----0-------0-3p-0----|--0-----0----0----------0-3b--3b--|
-------------------------------|----------------------------------|
-------------------------------|----------------------------------|


        PM   PM PM   PM   PM                  PM   PM        PM          
  E  E  S  S S  S  S S  S S  S  S E     E  E  S  S S  S E  S S  E  S  S  
-------------------------------------|----------------------------------|
-------------------------------------|----------------------------------|
----------------------------------2--|----------------2-L---------------|
-----2-----4-------5----4---------2--|-----2-----4---------4------------|
--0-----0----0--0----0----0--3h-4----|--0-----0----0---------0--3--3p-0-|
-------------------------------------|----------------------------------|


  PM                                   PM   PM PM   PM   PM          
  E  E   S S E  E  E   S S E     E  E  S  S S  S  S S  S S  S  S E   
------------------------------|-------------------------------------|
------------------------------|-------------------------------------|
------------------------------|----------------------------------2--|
----------------7--7-----7-9--|-----2-----4-------5----4---------2--|
--5--5-----5-7--5--5--/9------|--0-----0----0--0----0----0--3h-4----|
--3--3--/7--------------------|-------------------------------------|


        PM   PM         PM            PM                           
  E  E  S  S S  S  E  S S  E   E      E  E   S S E  E  E   S S E   
-----------------------------------|------------------------------|
-----------------------------------|------------------------------|
----------------2~-L---------------|------------------------------|
-----2-----4----------4------------|----------------7--7-----7-9--|
--0-----0----0----------0--3b--3b--|--5--5-----5-7--5--5--/9------|
-----------------------------------|--3--3--/7--------------------|


        PM   PM PM   PM   PM                                         
  E  E  S  S S  S  S S  S S  S  S E     E  S S S S S  S E  E  S E.   
-------------------------------------|------------------------------|
-------------------------------------|------------------------------|
----------------------------------2--|------------------------------|
-----2-----4-------5----4---------2--|-----7-5-4-----------7--L-----|
--0-----0----0--0----0----0--3h-4----|--0--------7-3h-4-0--5--L-7---|
-------------------------------------|--------------------------5---|


                             >                                            
  E.  S E  E     E  E  S S S S E  E   S E.     E  E  S S S S E  E  S E.   
--------------|-----------------------------|----------------------------|
--------------|-----------------------------|----------------------------|
--------------|-----------------------------|----------------------------|
--7--------7--|-------------------------2---|-------------------7--L-----|
--5---7-L--5--|--2--2--4-----5--------4-----|--2--2--4-----5----5--L-7---|
------5-L-----|--0--0----0-0---0--3b--------|--0--0----0-0-----------5---|


              >                                            
  E  E  S S S S E  E   S E.     E  E  S S S S E  E  S E.   
-----------------------------|----------------------------|
-----------------------------|----------------------------|
-----------------------------|----------------------------|
-------------------------2---|-------------------7--L-----|
--2--2--4-----5--------4-----|--2--2--4-----5----5--L-7---|
--0--0----0-0---0--3b--------|--0--0----0-0-----------5---|


              >                                            
  E  E  S S S S E  E   S E.     E  E  S S S S E  E  S E.   
-----------------------------|----------------------------|
-----------------------------|----------------------------|
-----------------------------|----------------------------|
-------------------------2---|-------------------7--L-----|
--2--2--4-----5--------4-----|--2--2--4-----5----5--L-7---|
--0--0----0-0---0--3b--------|--0--0----0-0-----------5---|


              >                                                              
  E  E  S S S S E  E   S E.     E  E  S S S S E  E  S E.     E.  S E  E  E   
-----------------------------|----------------------------|-----------------|
-----------------------------|----------------------------|-----------------|
-----------------------------|----------------------------|-----------------|
-------------------------2---|-------------------7--L-----|--7--------7-----|
--2--2--4-----5--------4-----|--2--2--4-----5----5--L-7---|--5---7-L--5--7--|
--0--0----0-0---0--3b--------|--0--0----0-0-----------5---|------5-L-----5--|


  E  E  S S E  S S E  S S E     S S E  S S E  E  E  S E.   
-----------------------------|----------------------------|
-----------------------------|----------------------------|
-----------------------------|----------------------------|
-----------------------------|-------------------7--L-----|
--2--2--x-2-2--x-2-2--x-2-2--|--x-2-2--x-2-2-----5--L-7---|
--0--0--x-0-0--x-0-0--x-0-0--|--x-0-0--x-0-0----------5---|


  E  E  S S E  S S E  S S E     S S E  S S E  E  E  S E.   
-----------------------------|----------------------------|
-----------------------------|----------------------------|
-----------------------------|----------------------------|
-----------------------------|-------------------7--L-----|
--2--2--x-2-2--x-2-2--x-2-2--|--x-2-2--x-2-2-----5--L-7---|
--0--0--x-0-0--x-0-0--x-0-0--|--x-0-0--x-0-0----------5---|


  E  E  S S E  S S E  S S E     S S E  S S E  E  E  S E.   
-----------------------------|----------------------------|
-----------------------------|----------------------------|
-----------------------------|----------------------------|
-----------------------------|-------------------7--L-----|
--2--2--x-2-2--x-2-2--x-2-2--|--x-2-2--x-2-2-----5--L-7---|
--0--0--x-0-0--x-0-0--x-0-0--|--x-0-0--x-0-0----------5---|


  E  E  S S E  S S E  S S E     S S E  S S E  E  E  S E.     E.  S E  E  E   
-----------------------------|----------------------------|-----------------|
-----------------------------|----------------------------|-----------------|
-----------------------------|----------------------------|-----------------|
-----------------------------|-------------------7--L-----|--7--------7-----|
--2--2--x-2-2--x-2-2--x-2-2--|--x-2-2--x-2-2-----5--L-7---|--5---7-L--5--7--|
--0--0--x-0-0--x-0-0--x-0-0--|--x-0-0--x-0-0----------5---|------5-L-----5--|


  W                   W                   W                 
-------------------|-------------------|-------------------|
-------------------|-------------------|-------------------|
-------------------|-------------------|-------------------|
-------------------|-------------------|-------------------|
--2----------------|--L----------------|--L----------------|
--0----------------|--L----------------|--L----------------|


        PM   PM PM   PM   PM                  PM   PM         PM          
  E  E  S  S S  S  S S  S S  S  S E     E  E  S  S S  S  E  S S  E   E    
-------------------------------------|-----------------------------------|
-------------------------------------|-----------------------------------|
----------------------------------2--|----------------2~-L---------------|
-----2-----4-------5----4---------2--|-----2-----4----------4------------|
--0-----0----0--0----0----0--3h-4----|--0-----0----0----------0--3b--3b--|
-------------------------------------|-----------------------------------|


        PM   PM PM   PM   PM                  PM   PM         PM          
  E  E  S  S S  S  S S  S S  S  S E     E  E  S  S S  S  E  S S  E   E    
-------------------------------------|-----------------------------------|
-------------------------------------|-----------------------------------|
----------------------------------2--|----------------2~-L---------------|
-----2-----4-------5----4---------2--|-----2-----4----------4------------|
--0-----0----0--0----0----0--3h-4----|--0-----0----0----------0--3b--3b--|
-------------------------------------|-----------------------------------|


        PM   PM PM   PM   PM                  PM   PM         PM          
  E  E  S  S S  S  S S  S S  S  S E     E  E  S  S S  S  E  S S  E   E    
-------------------------------------|-----------------------------------|
-------------------------------------|-----------------------------------|
----------------------------------2--|----------------2~-L---------------|
-----2-----4-------5----4---------2--|-----2-----4----------4------------|
--0-----0----0--0----0----0--3h-4----|--0-----0----0----------0--3b--3b--|
-------------------------------------|-----------------------------------|


        PM   PM PM   PM   PM                  PM   PM        PM          
  E  E  S  S S  S  S S  S S  S  S E     E  E  S  S S  S E  S S  E  S  S  
-------------------------------------|----------------------------------|
-------------------------------------|----------------------------------|
----------------------------------2--|----------------2-L---------------|
-----2-----4-------5----4---------2--|-----2-----4---------4------------|
--0-----0----0--0----0----0--3h-4----|--0-----0----0---------0--3--3p-0-|
-------------------------------------|----------------------------------|


        PM   PM                         PM   PM                    
  E  E  S  S E  E  S S S  S E     E  E  S  S S  S  E  S S E   E    
-------------------------------|----------------------------------|
----------------------------3--|----------------3~-L--------------|
-----2-----4----5--4-----------|-----2-----4----------4-----------|
--0-----0----0-------0-3p-0----|--0-----0----0----------0-3b--3b--|
-------------------------------|----------------------------------|
-------------------------------|----------------------------------|


        PM   PM PM   PM   PM                  PM   PM         PM          
  E  E  S  S S  S  S S  S S  S  S E     E  E  S  S S  S  E  S S  E   E    
-------------------------------------|-----------------------------------|
-------------------------------------|-----------------------------------|
----------------------------------2--|----------------2~-L---------------|
-----2-----4-------5----4---------2--|-----2-----4----------4------------|
--0-----0----0--0----0----0--3h-4----|--0-----0----0----------0--3b--3b--|
-------------------------------------|-----------------------------------|


  PM                                   PM   PM PM   PM   PM          
  E  E   S S E  E  E   S S E     E  E  S  S S  S  S S  S S  S  S E   
------------------------------|-------------------------------------|
------------------------------|-------------------------------------|
------------------------------|----------------------------------2--|
----------------7--7-----7-9--|-----2-----4-------5----4---------2--|
--5--5-----5-7--5--5--/9------|--0-----0----0--0----0----0--3h-4----|
--3--3--/7--------------------|-------------------------------------|


        PM   PM         PM            PM                           
  E  E  S  S S  S  E  S S  E   E      E  E   S S E  E  E   S S E   
-----------------------------------|------------------------------|
-----------------------------------|------------------------------|
----------------2~-L---------------|------------------------------|
-----2-----4----------4------------|----------------7--7-----7-9--|
--0-----0----0----------0--3b--3b--|--5--5-----5-7--5--5--/9------|
-----------------------------------|--3--3--/7--------------------|


        PM   PM PM   PM   PM                  PM   PM         PM          
  E  E  S  S S  S  S S  S S  S  S E     E  E  S  S S  S  E  S S  E   E    
-------------------------------------|-----------------------------------|
-------------------------------------|-----------------------------------|
----------------------------------2--|----------------2~-L---------------|
-----2-----4-------5----4---------2--|-----2-----4----------4------------|
--0-----0----0--0----0----0--3h-4----|--0-----0----0----------0--3b--3b--|
-------------------------------------|-----------------------------------|


  PM                                   PM   PM PM   PM   PM          
  E  E   S S E  E  E   S S E     E  E  S  S S  S  S S  S S  S  S E   
------------------------------|-------------------------------------|
------------------------------|-------------------------------------|
------------------------------|----------------------------------2--|
----------------7--7-----7-9--|-----2-----4-------5----4---------2--|
--5--5-----5-7--5--5--/9------|--0-----0----0--0----0----0--3h-4----|
--3--3--/7--------------------|-------------------------------------|


        PM   PM         PM            PM                           
  E  E  S  S S  S  E  S S  E   E      E  E   S S E  E  E   S S E   
-----------------------------------|------------------------------|
-----------------------------------|------------------------------|
----------------2~-L---------------|------------------------------|
-----2-----4----------4------------|----------------7--7-----7-9--|
--0-----0----0----------0--3b--3b--|--5--5-----5-7--5--5--/9------|
-----------------------------------|--3--3--/7--------------------|


        PM   PM PM   PM   PM                                        
  E  E  S  S S  S  S S  S S  S  S E     E  S S S S S  S E  E  Q     
-------------------------------------|-----------------------------|
-------------------------------------|-----------------------------|
----------------------------------2--|-----------------------------|
-----2-----4-------5----4---------2--|-----7-5-4-----------7--L----|
--0-----0----0--0----0----0--3h-4----|--0--------7-3h-4-0--5--L----|
-------------------------------------|-----------------------------|


  H        S S S S S S S S     S S S  S Q    H          
----------------------------|-------------------------||
----------------------------|-------------------------||
----------------------------|-------------------------||
--L--------7-5-4---5-4------|----2------2-------------||
--L--------------7-----7-3b-|--L---3h-4-0-------------||
----------------------------|-------------------------||










Rhythm - right
This is revision #1 (May 23, 2008).



     W                   W                   W                 
E||-------------------|-------------------|-------------------|
B||-------------------|-------------------|-------------------|
G||-------------------|-------------------|-------------------|
D||-------------------|-------------------|-------------------|
A||-------------------|-------------------|-------------------|
E||-------------------|-------------------|-------------------|


  W                   W                   W                   W                 
-------------------|-------------------|-------------------|-------------------|
-------------------|-------------------|-------------------|-------------------|
-------------------|-------------------|-------------------|-------------------|
-------------------|-------------------|-------------------|-------------------|
-------------------|-------------------|-------------------|-------------------|
-------------------|-------------------|-------------------|-------------------|


        PM   PM PM   PM   PM                  PM   PM         PM          
  E  E  S  S S  S  S S  S S  S  S E     E  E  S  S S  S  E  S S  E   E    
-------------------------------------|-----------------------------------|
-------------------------------------|-----------------------------------|
----------------------------------2--|----------------2~-L---------------|
-----2-----4-------5----4---------2--|-----2-----4----------4------------|
--0-----0----0--0----0----0--3h-4----|--0-----0----0----------0--3b--3b--|
-------------------------------------|-----------------------------------|


        PM   PM PM   PM   PM                  PM   PM         PM          
  E  E  S  S S  S  S S  S S  S  S E     E  E  S  S S  S  E  S S  E   E    
-------------------------------------|-----------------------------------|
-------------------------------------|-----------------------------------|
----------------------------------2--|----------------2~-L---------------|
-----2-----4-------5----4---------2--|-----2-----4----------4------------|
--0-----0----0--0----0----0--3h-4----|--0-----0----0----------0--3b--3b--|
-------------------------------------|-----------------------------------|


        PM   PM PM   PM   PM                  PM   PM         PM          
  E  E  S  S S  S  S S  S S  S  S E     E  E  S  S S  S  E  S S  E   E    
-------------------------------------|-----------------------------------|
-------------------------------------|-----------------------------------|
----------------------------------2--|----------------2~-L---------------|
-----2-----4-------5----4---------2--|-----2-----4----------4------------|
--0-----0----0--0----0----0--3h-4----|--0-----0----0----------0--3b--3b--|
-------------------------------------|-----------------------------------|


        PM   PM PM   PM   PM                  PM   PM         PM          
  E  E  S  S S  S  S S  S S  S  S E     E  E  S  S S  S  E  S S  E   E    
-------------------------------------|-----------------------------------|
-------------------------------------|----------------2~-L---------------|
----------------------------------2--|----------------------4------------|
-----2-----4-------5----4---------2--|-----2-----4-----------------------|
--0-----0----0--0----0----0--3h-4----|--0-----0----0----------0--3b--3b--|
-------------------------------------|-----------------------------------|


        PM   PM PM   PM   PM                  PM   PM         PM          
  E  E  S  S S  S  S S  S S  S  S E     E  E  S  S S  S  E  S S  E   E    
-------------------------------------|-----------------------------------|
-------------------------------------|-----------------------------------|
----------------------------------2--|----------------2~-L---------------|
-----2-----4-------5----4---------2--|-----2-----4----------4------------|
--0-----0----0--0----0----0--3h-4----|--0-----0----0----------0--3b--3b--|
-------------------------------------|-----------------------------------|


        PM   PM PM   PM   PM                  PM   PM         PM          
  E  E  S  S S  S  S S  S S  S  S E     E  E  S  S S  S  E  S S  E   E    
-------------------------------------|-----------------------------------|
-------------------------------------|----------------2~-L---------------|
----------------------------------2--|----------------------4----4b--4b--|
-----2-----4-------5----4---------2--|-----2-----4-----------------------|
--0-----0----0--0----0----0--3h-4----|--0-----0----0----------0----------|
-------------------------------------|-----------------------------------|


        PM   PM PM   PM   PM                  PM   PM         PM          
  E  E  S  S S  S  S S  S S  S  S E     E  E  S  S S  S  E  S S  E   E    
-------------------------------------|-----------------------------------|
-------------------------------------|-----------------------------------|
----------------------------------2--|----------------2~-L---------------|
-----2-----4-------5----4---------2--|-----2-----4----------4------------|
--0-----0----0--0----0----0--3h-4----|--0-----0----0----------0--3b--3b--|
-------------------------------------|-----------------------------------|


        PM   PM PM   PM   PM                  PM   PM         PM          
  E  E  S  S S  S  S S  S S  S  S E     E  E  S  S S  S  E  S S  E   E    
-------------------------------------|-----------------------------------|
-------------------------------------|----------------2~-L---------------|
----------------------------------2--|----------------------4----4b--4b--|
-----2-----4-------5----4---------2--|-----2-----4-----------------------|
--0-----0----0--0----0----0--3h-4----|--0-----0----0----------0----------|
-------------------------------------|-----------------------------------|


  PM                                   PM   PM PM   PM   PM          
  E  E   S S E  E  E   S S E     E  E  S  S S  S  S S  S S  S  S E   
------------------------------|-------------------------------------|
------------------------------|-------------------------------------|
------------------------------|----------------------------------2--|
----------------7--7-----7-9--|-----2-----4-------5----4---------2--|
--5--5-----5-7--5--5--/9------|--0-----0----0--0----0----0--3h-4----|
--3--3--/7--------------------|-------------------------------------|


        PM   PM         PM            PM                           
  E  E  S  S S  S  E  S S  E   E      E  E   S S E  E  E   S S E   
-----------------------------------|------------------------------|
-----------------------------------|------------------------------|
----------------2~-L---------------|------------------------------|
-----2-----4----------4------------|----------------7--7-----7-9--|
--0-----0----0----------0--3b--3b--|--5--5-----5-7--5--5--/9------|
-----------------------------------|--3--3--/7--------------------|


        PM   PM PM   PM   PM                                        
  E  E  S  S S  S  S S  S S  S  S E     E  S S S S S  S E  E  Q     
-------------------------------------|-----------------------------|
-------------------------------------|-----------------------------|
----------------------------------2--|-----------------------------|
-----2-----4-------5----4---------2--|-----7-5-4-----------7--L----|
--0-----0----0--0----0----0--3h-4----|--0--------7-3h-4-0--5--L----|
-------------------------------------|-----------------------------|


        PM   PM PM   PM   PM                  PM   PM         PM          
  E  E  S  S S  S  S S  S S  S  S E     E  E  S  S S  S  E  S S  E   E    
-------------------------------------|-----------------------------------|
-------------------------------------|-----------------------------------|
----------------------------------2--|----------------2~-L---------------|
-----2-----4-------5----4---------2--|-----2-----4----------4------------|
--0-----0----0--0----0----0--3h-4----|--0-----0----0----------0--3b--3b--|
-------------------------------------|-----------------------------------|


        PM   PM PM   PM   PM                  PM   PM         PM          
  E  E  S  S S  S  S S  S S  S  S E     E  E  S  S S  S  E  S S  E   E    
-------------------------------------|-----------------------------------|
-------------------------------------|----------------2~-L---------------|
----------------------------------2--|----------------------4----4b--4b--|
-----2-----4-------5----4---------2--|-----2-----4-----------------------|
--0-----0----0--0----0----0--3h-4----|--0-----0----0----------0----------|
-------------------------------------|-----------------------------------|


        PM   PM                         PM   PM                    
  E  E  S  S E  E  S S S  S E     E  E  S  S S  S E  S  S E   E    
-------------------------------|----------------2-L---------------|
----------------------------3--|---------------------5p-3---------|
-----2-----4----5--4-----------|-----2-----4--------------4b--4b--|
--0-----0----0-------0-3p-0----|--0-----0----0--------------------|
-------------------------------|----------------------------------|
-------------------------------|----------------------------------|


        PM   PM PM   PM   PM                  PM   PM        PM          
  E  E  S  S S  S  S S  S S  S  S E     E  E  S  S S  S E  S S  E  S  S  
-------------------------------------|----------------------------------|
-------------------------------------|----------------------------------|
----------------------------------2--|----------------2-L---------------|
-----2-----4-------5----4---------2--|-----2-----4---------4------------|
--0-----0----0--0----0----0--3h-4----|--0-----0----0---------0--3--3p-0-|
-------------------------------------|----------------------------------|


  PM                                   PM   PM PM   PM   PM          
  E  E   S S E  E  E   S S E     E  E  S  S S  S  S S  S S  S  S E   
------------------------------|-------------------------------------|
------------------------------|-------------------------------------|
------------------------------|----------------------------------2--|
----------------7--7-----7-9--|-----2-----4-------5----4---------2--|
--5--5-----5-7--5--5--/9------|--0-----0----0--0----0----0--3h-4----|
--3--3--/7--------------------|-------------------------------------|


        PM   PM         PM            PM                           
  E  E  S  S S  S  E  S S  E   E      E  E   S S E  E  E   S S E   
-----------------------------------|------------------------------|
-----------------------------------|------------------------------|
----------------2~-L---------------|------------------------------|
-----2-----4----------4------------|----------------7--7-----7-9--|
--0-----0----0----------0--3b--3b--|--5--5-----5-7--5--5--/9------|
-----------------------------------|--3--3--/7--------------------|


        PM   PM PM   PM   PM                                         
  E  E  S  S S  S  S S  S S  S  S E     E  S S S S S  S E  E  S E.   
-------------------------------------|------------------------------|
-------------------------------------|------------------------------|
----------------------------------2--|------------------------------|
-----2-----4-------5----4---------2--|-----7-5-4-----------7--L-----|
--0-----0----0--0----0----0--3h-4----|--0--------7-3h-4-0--5--L-7---|
-------------------------------------|--------------------------5---|


                             >                                            
  E.  S E  E     E  E  S S S S E  E   S E.     E  E  S S S S E  E  S E.   
--------------|-----------------------------|----------------------------|
--------------|-----------------------------|----------------------------|
--------------|-----------------------------|----------------------------|
--7--------7--|-------------------------2---|-------------------7--L-----|
--5---7-L--5--|--2--2--4-----5--------4-----|--2--2--4-----5----5--L-7---|
------5-L-----|--0--0----0-0---0--3b--------|--0--0----0-0-----------5---|


              >                                            
  E  E  S S S S E  E   S E.     E  E  S S S S E  E  S E.   
-----------------------------|----------------------------|
-----------------------------|----------------------------|
-----------------------------|----------------------------|
-------------------------2---|-------------------7--L-----|
--2--2--4-----5--------4-----|--2--2--4-----5----5--L-7---|
--0--0----0-0---0--3b--------|--0--0----0-0-----------5---|


              >                                            
  E  E  S S S S E  E   S E.     E  E  S S S S E  E  S E.   
-----------------------------|----------------------------|
-----------------------------|----------------------------|
-----------------------------|----------------------------|
-------------------------2---|-------------------7--L-----|
--2--2--4-----5--------4-----|--2--2--4-----5----5--L-7---|
--0--0----0-0---0--3b--------|--0--0----0-0-----------5---|


              >                                                              
  E  E  S S S S E  E   S E.     E  E  S S S S E  E  S E.     E.  S E  E  E   
-----------------------------|----------------------------|-----------------|
-----------------------------|----------------------------|-----------------|
-----------------------------|----------------------------|-----------------|
-------------------------2---|-------------------7--L-----|--7--------7-----|
--2--2--4-----5--------4-----|--2--2--4-----5----5--L-7---|--5---7-L--5--7--|
--0--0----0-0---0--3b--------|--0--0----0-0-----------5---|------5-L-----5--|


  E  E  S S E  S S E  S S E     S S E  S S E  E  E  S E.   
-----------------------------|----------------------------|
-----------------------------|----------------------------|
-----------------------------|----------------------------|
-----------------------------|-------------------7--L-----|
--2--2--x-2-2--x-2-2--x-2-2--|--x-2-2--x-2-2-----5--L-7---|
--0--0--x-0-0--x-0-0--x-0-0--|--x-0-0--x-0-0----------5---|


  E  E  S S E  S S E  S S E     S S E  S S E  E  E  S E.   
-----------------------------|----------------------------|
-----------------------------|----------------------------|
-----------------------------|----------------------------|
-----------------------------|-------------------7--L-----|
--2--2--x-2-2--x-2-2--x-2-2--|--x-2-2--x-2-2-----5--L-7---|
--0--0--x-0-0--x-0-0--x-0-0--|--x-0-0--x-0-0----------5---|


  E  E  S S E  S S E  S S E     S S E  S S E  E  E  S E.   
-----------------------------|----------------------------|
-----------------------------|----------------------------|
-----------------------------|----------------------------|
-----------------------------|-------------------7--L-----|
--2--2--x-2-2--x-2-2--x-2-2--|--x-2-2--x-2-2-----5--L-7---|
--0--0--x-0-0--x-0-0--x-0-0--|--x-0-0--x-0-0----------5---|


  E  E  S S E  S S E  S S E     S S E  S S E  E  E  S E.     E.  S E  E  E   
-----------------------------|----------------------------|-----------------|
-----------------------------|----------------------------|-----------------|
-----------------------------|----------------------------|-----------------|
-----------------------------|-------------------7--L-----|--7--------7-----|
--2--2--x-2-2--x-2-2--x-2-2--|--x-2-2--x-2-2-----5--L-7---|--5---7-L--5--7--|
--0--0--x-0-0--x-0-0--x-0-0--|--x-0-0--x-0-0----------5---|------5-L-----5--|


  W                   W                   W                 
-------------------|-------------------|-------------------|
-------------------|-------------------|-------------------|
-------------------|-------------------|-------------------|
-------------------|-------------------|-------------------|
--2----------------|--L----------------|--L----------------|
--0----------------|--L----------------|--L----------------|


        PM   PM PM   PM   PM                  PM   PM         PM          
  E  E  S  S S  S  S S  S S  S  S E     E  E  S  S S  S  E  S S  E   E    
-------------------------------------|-----------------------------------|
-------------------------------------|-----------------------------------|
----------------------------------2--|----------------2~-L---------------|
-----2-----4-------5----4---------2--|-----2-----4----------4------------|
--0-----0----0--0----0----0--3h-4----|--0-----0----0----------0--3b--3b--|
-------------------------------------|-----------------------------------|


        PM   PM PM   PM   PM                  PM   PM         PM          
  E  E  S  S S  S  S S  S S  S  S E     E  E  S  S S  S  E  S S  E   E    
-------------------------------------|-----------------------------------|
-------------------------------------|-----------------------------------|
----------------------------------2--|----------------2~-L---------------|
-----2-----4-------5----4---------2--|-----2-----4----------4------------|
--0-----0----0--0----0----0--3h-4----|--0-----0----0----------0--3b--3b--|
-------------------------------------|-----------------------------------|


        PM   PM PM   PM   PM                  PM   PM         PM          
  E  E  S  S S  S  S S  S S  S  S E     E  E  S  S S  S  E  S S  E   E    
-------------------------------------|-----------------------------------|
-------------------------------------|-----------------------------------|
----------------------------------2--|----------------2~-L---------------|
-----2-----4-------5----4---------2--|-----2-----4----------4------------|
--0-----0----0--0----0----0--3h-4----|--0-----0----0----------0--3b--3b--|
-------------------------------------|-----------------------------------|


        PM   PM PM   PM   PM                  PM   PM         PM          
  E  E  S  S S  S  S S  S S  S  S E     E  E  S  S S  S  E  S S  E   E    
-------------------------------------|-----------------------------------|
-------------------------------------|----------------2~-L---------------|
----------------------------------2--|----------------------4------------|
-----2-----4-------5----4---------2--|-----2-----4-----------------------|
--0-----0----0--0----0----0--3h-4----|--0-----0----0----------0--3b--3b--|
-------------------------------------|-----------------------------------|


        PM   PM                         PM   PM                    
  E  E  S  S E  E  S S S  S E     E  E  S  S S  S E  S  S E   E    
-------------------------------|----------------2-2---------------|
----------------------------3--|---------------------5p-3---------|
-----2-----4----5--4-----------|-----2-----4--------------4b--4b--|
--0-----0----0---





Comments


Popular Molly Hatchet tabs & chords
Beatin' The Odds Bass Tabs
Mississippi Moon Dog Drum Tabs
Boogie No More Intro Tabs
Flirting With Disaster Tabs
Its All Over Now Intro Tabs
Long Time Intro Tabs
Long Time Intro Intro Tabs
Respect Me In The Morning Tabs
Take Miss Lucy Home Tabs
Whiskey Man Tabs


Song lyrics



↑ Back to top | Tablatures and chords are parodies/interpretations of the original songs. You may use it for private study, scholarship, research or language learning purposes only
© 2014 AZChords.com Contact us | Privacy policy | DMCA | Add/correct tabs | Request tabs | Top 50 tabs