» » »

Molly Hatchet, No Stanger In The Darkness Tabs (ver.1)

Artists:  A B C D E F G H I J K L M N O P Q R S T U V W X Y Z # 

No Stanger In The Darkness Tabs (ver.1)

Molly Hatchet Tabs
 Rating:
4/5 (4 votes)
No Stanger In The Darkness lessons Tabs too difficult? Try these video lessons and learn fast
1
                -------------------------------------------------------------------------------
		    No Stranger in the Darkness - by Molly Hatchet
-------------------------------------------------------------------------------

Quite a cool song. Only 2 riffs of interest in the song, but a varying tempo adds a bit of spice!


Tuning: Down a tone

******
Intro:
******

d|--------------------------------------------------------------------------|
A|--------------------------------------------------------------------------|
F|--------------------------------------------------------------------------|
C|---2----------------------------------------------------------------------|
G|---2----------------------------------------------------------------------|
D|---0----------------------------------------------------------------------|
    hold



d|-----------------------------|--------------------------------------------|
A|o---------------3------------|------3------------------------------------o|
F|------------2h4----4p2p0-----|--2h4---4p2p0-2-0---------------------------|
C|--0-2--2-----------------2---|------------------2-0-2-0-------------------|
G|o----------------------------|--------------------------2-0--------------o|
D|-----------------------------|------------------------------3-0-----------|


********
Verse 1:
********

"Times of trouble..."

d|-----------------------------|--------------------------------------------|
A|o---------------3------------|------3------------------------------------o|
F|------------2h4----4p2p0-----|--2h4---4p2p0-2-0---------------------------|
C|--0-2--2-----------------2---|------------------2-0-2-0-------------------|
G|o----------------------------|--------------------------2-0--------------o|
D|-----------------------------|------------------------------3-0-----------|

"Broken sails from from the wind..."

d|--------------------------5-5-5-5---5-3-5-5-------------------------------|
A|o-----------3-------------3-3-3-3---3-3-3-3------------------------------o|
F|---2-4--4---2-4----2-4--4-------------------------------------------------|
C|---2-4--4-----4------4--4-------------------------------------------------|
G|o------------------------------------------------------------------------o|
D|--------------------------------------------------------------------------|

"One step forward..."

d|-----------------------------|--------------------------------------------|
A|o---------------3------------|------3------------------------------------o|
F|------------2h4----4p2p0-----|----4---4p2p0-2-0---------------------------|
C|--0-2--2-----------------2---|------------------2-0-2-0-------------------|
G|o----------------------------|--------------------------2-0--------------o|
D|-----------------------------|------------------------------3-0-----------|

"Two time loser..."

d|--------------------------5-5-5b7b5b7b5b7---------------------------------|
A|------------3-------------3-3-3-3-3-3-3-3---------------------------------|
F|---2-4--4---2-4----2-4--4-------------------------------------------------|
C|---2-4--4-----4------4--4-------------------------------------------------|
G|--------------------------------------------------------------------------|
D|--------------------------------------------------------------------------|

d|--------------------------------2---3---4---------------------------------|
A|------------3-------------------3---4---5---------------------------------|
F|---2-4--4---2-4----2-4--4-------2---3---4---------------------------------|
C|---2-4--4-----4------4--4-------------------------------------------------|
G|--------------------------------------------------------------------------|
D|--------------------------------------------------------------------------|

**Tempo increases**

d|-----------------------------|--------------------------------------------|
A|o---------------3------------|------3------------------------------------o|
F|------------2h4----4p2p0-----|----4---4p2p0-2-0---------------------------|
C|--0-2--2-----------------2---|------------------2-0-2-0-------------------|
G|o----------------------------|--------------------------2-0--------------o|
D|-----------------------------|------------------------------3-0-----------|

"Talking walking with the Devil..."

d|-----------------------------|--------------------------------------------|
A|o---------------3------------|------3------------------------------------o|
F|------------2h4----4p2p0-----|----4---4p2p0-2-0---------------------------|
C|--0-2--2-----------------2---|------------------2-0-2-0-------------------|
G|o----------------------------|--------------------------2-0--------------o|
D|-----------------------------|------------------------------3-0-----------|

"It was the soundtrack to your soul..."

d|----------------------------5-5-5-5---5-5-5-5-----------------------------|
A|o-----------3-------------0-3-3-3-3-0-3-3-3-3----------------------------o|
F|---2-4--4---2-4----2-4--4-------------------------------------------------|
C|---2-4--4-----4------4--4-------------------------------------------------|
G|o------------------------------------------------------------------------o|
D|--------------------------------------------------------------------------|

"No stranger to the darkness..."

d|-----------------------------|--------------------------------------------|
A|o---------------3------------|------3------------------------------------o|
F|------------2h4----4p2p0-----|----4---4p2p0-2-0---------------------------|
C|--0-2--2-----------------2---|------------------2-0-2-0-------------------|
G|o----------------------------|--------------------------2-0--------------o|
D|-----------------------------|------------------------------3-0-----------|




************
Guitar Solo:
************

Rhythm guitar plays:

Listen carefully - play whatever nuances you feel like.

							          Play 4 times
d|---------------------------------------------------------------------------|
A|o-------------------------------------------------------------------------o|
F|---------------------------------------------------------------------------|
C|--6-6-x-x-6-x-x-6-x-x-6-4-4-4-4-4/6-6-x-x-6-x-x-6-x-x-6-4-4-4-4------------|
G|o-4-4-x-x-4-x-x-4-x-x-4-2-2-2-2-2/4-4-x-x-4-x-x-4-x-x-4-2-2-2-2-----------o|
D|---------------------------------------------------------------------------|

d|---------------------------------------------------------------------------|
A|--5-5----5-5----5-5----5-5-----5---5-----7---------------------------------|
F|--4-4----4-4----4-4----4-4-----4---4-----5---------------------------------|
C|--2-2----2-2----2-2----2-2-----2---2-----4---------------------------------|
G|---------------------------------------------------------------------------|
D|---------------------------------------------------------------------------|

***************
End guitar solo
***************


d|-----------------------------|--------------------------------------------|
A|o---------------3------------|------3------------------------------------o|
F|------------2h4----4p2p0-----|----4---4p2p0-2-0---------------------------|
C|--0-2--2-----------------2---|------------------2-0-2-0-------------------|
G|o----------------------------|--------------------------2-0--------------o|
D|-----------------------------|------------------------------3-0-----------|

"One step bigger..."

d|-----------------------------|--------------------------------------------|
A|o---------------3------------|------3------------------------------------o|
F|------------2h4----4p2p0-----|----4---4p2p0-2-0---------------------------|
C|--0-2--2-----------------2---|------------------2-0-2-0-------------------|
G|o----------------------------|--------------------------2-0--------------o|
D|-----------------------------|------------------------------3-0-----------|

"...on the streets since I was born..."

d|--------------------------5-5-5-5-5-5-5-5---------------------------------|
A|o-----------3-------------3-3-3-3-3-3-3-3--------------------------------o|
F|---2-4--4---2-4----2-4--4-------------------------------------------------|
C|---2-4--4-----4----2-4--4-------------------------------------------------|
G|o------------------------------------------------------------------------o|
D|--------------------------------------------------------------------------|

"No stranger to the darkness..."

d|-----------------------------|--------------------------------------------|
A|o---------------3------------|------3------------------------------------o|
F|------------2h4----4p2p0-----|----4---4p2p0-2-0---------------------------|
C|--0-2--2-----------------2---|------------------2-0-2-0-------------------|
G|o----------------------------|--------------------------2-0--------------o|
D|-----------------------------|------------------------------3-0-----------|

"No stranger to the darkness..."

d|-----------------------------|--------------------------------------------|
A|----------------3------------|------3-------------------------------------|
F|------------2h4----4p2p0-----|----4---4p2p0-2-0---------------------------|
C|--0-2--2-----------------2---|------------------2-0-2-0-------------------|
G|-----------------------------|--------------------------2-0---------------|
D|-----------------------------|------------------------------3-0-----------|

d|-----------------------------|--------------------------------------------|
A|----------------3------------|------3----------3----------3--------3----5-|
F|------------2h4----4p2p0-----|----4---4p2p0--4---4p2p0--4---4p2p0--0--4-4-|
C|--0-2--2-----------------2---|-------------------------------------0--2---|
G|-----------------------------|----------------------------------------2---|
D|-----------------------------|--------------------------------------------|




| /  slide up
| \  slide down
| h  hammer-on
| p  pull-off
| ~  vibrato
| +  harmonic
| x  Mute note
| b  Bend note
| r  Release bend
| pb Prebend note
===============================================================================
            
Submit corrections

comments powered by Disqus
↑ Back to top | Molly Hatchet Tabs for No Stanger In The Darkness. Lyrics for acoustic guitar and electric guitar. 1 Tablatures and chords are parodies/interpretations of the original songs. You may use it for private study, scholarship, research or language learning purposes only