>
 >
Gator Country

Gator Country Guitar Tabs

Molly Hatchet - Gator Country chords, tabs, tablatures, lyrics

Guitar lessons | Add/correct | Request | Top 50 tabs Artists:  A B C D E F G H I J K L M N O P Q R S T U V W X Y Z 0-9

Gator Country Guitar Tabs – Molly Hatchet

CD, Sheet music, Poster

Do you like Gator Country? Share with your friends now
Tabs
#------------------------------------------------------------------------------##

                                  GATOR COUNTRY
                          As recorded by Molly Hatchet

Words and Music by Thomas,  Holland & Hlubek

Gtr I (E A D G B E) - 'Untitled'
Gtr II (E A D G B E) - 'Untitled'
Gtr III (E A D G B E) - 'Untitled'

 Intro
  Fast Rock Q=186
  N.C.
 4/4
  Gtr III
   W            E E E E E E E E    Q  H.        +H         H
|-------------|-----------------|-------------|---------------------|
|-------------|-1-0-------------|-------------|---------------------|
|-------------|-----2-0---------|-----0-------|-(0)-----------------|
|-------------|---------3-2-0---|-------------|---------------------|
|-------------|-----------------|-------------|---------------------|
|-------------|---------------2-|-/3----------|---------------------|
|
| Gtr II
|  Q  H.        E E E E E E E E    Q  H.         E  E E E +E  E E E
|-------------|-----------------|-------------|---------------------|
|-------------|-----------------|-------------|---------------------|
|-----0-------|-----------------|-----0-------|---------------------|
|-------------|-3-2-0-----------|-------------|---------2-(2)-------|
|-------------|-------3-2-0-----|-------------|-------0-------2-0---|
|-/3----------|-------------3-0-|-/3----------|--0--2-------------3-|
|
| Gtr I
|  Q  H.        E E E E E E E E    Q  H.         E  E E E +E  E E E
|-------------|-----------------|-------------|---------------------|
|-------------|-----------------|-------------|---------------------|
|-----0-------|-2-0-------------|-----0-------|---------------------|
|-------------|-----3-2-0-------|-------------|---------2-(2)-0-----|
|-------------|-----------3-2-0-|-------------|-----0-3---------3-0-|
|-/3----------|-----------------|-/3----------|--3------------------|


   E  E  E   E  E  Q.      E      Q.      +Q        +Q
|-----------------------|---------------------------------|
|-----------------------|---------------------------------|
|-------12-----12-12----|-14pb16r14------(14)b15---(14)---|
|-12h14-----14----------|---------------------------------|
|-----------------------|---------------------------------|
|-----------------------|---------------------------------|
|
|  Q     H.                E      E  E E   E     E   E  E
|-----------------------|---------------------------------|
|-----------------------|---------------------------------|
|--------0--------------|---------------------------------|
|-----------------------|--3------2--0--------------------|
|-----------------------|--------------3---2-----0--------|
|-/3--------------------|----------------------------3--0-|
|
|  Q     H.                E      E  E E   E     E   E  E
|-----------------------|---------------------------------|
|-----------------------|---------------------------------|
|--------0--------------|--2------0-----------------------|
|-----------------------|------------3-2---0--------------|
|-----------------------|------------------------3---2--0-|
|-/3--------------------|---------------------------------|


                           |--3--|
   E  Q         +E   E  E  E  E  E    Q    E  E  Q     E  E
|----------------------------------|------------------------|
|-15-------------------------------|------------------------|
|----14pb16r===(14)-14p12-14-12----|-12---------------------|
|-------------------------------14-|------14p12-14----14p12-|
|----------------------------------|------------------------|
|----------------------------------|------------------------|
|
|  Q        H.                        E E  E  E +E  E  E  E
|----------------------------------|------------------------|
|----------------------------------|------------------------|
|-----------0----------------------|------------------------|
|----------------------------------|----------2-(2)---------|
|----------------------------------|-------0--------2--0----|
|-/3-------------------------------|--0-2-----------------3-|
|
|  Q        H.                        E E  E  E +E  E  E  E
|----------------------------------|------------------------|
|----------------------------------|------------------------|
|-----------0----------------------|------------------------|
|----------------------------------|----------2-(2)-0-------|
|----------------------------------|----0--3-----------3--0-|
|-/3-------------------------------|--3---------------------|


                                                   E5/B
            |--3--|
   S  S  E  E  E  E  E  E  q     Q    E  E  Q    E  E
|-----------------------------|-----------------------|
|-----------------------------|-----------------------|
|-----------------------------|-----------------------|
|-14p12----12h14p12-----------|-----------------12s14-|
|-------14----------14-13-12--|-10--------------12s14-|
|-----------------------------|------12p10-12---------|
|
|  Q        H.                   E E  E  E  E E  E  E
|-----------------------------|-----------------------|
|-----------------------------|-----------------------|
|-----------0-----------------|-----------------------|
|-----------------------------|--3-2--0---------------|
|-----------------------------|----------3--2-0-------|
|-/3--------------------------|------------------3--0-|
|
|  Q        H.                   E E  E  E  E E  E  E
|-----------------------------|-----------------------|
|-----------------------------|-----------------------|
|-----------0-----------------|--2-0------------------|
|-----------------------------|-------3--2--0---------|
|-----------------------------|---------------3--2--0-|
|-/3--------------------------|-----------------------|


  G5/D      A5/G        G5/D
                                   ~~~~
   E  E  E   E  E  E  E  E        +W
|-----------------------15pb17-|-(15)-------------------|
|--------------12----12-15pb17-|-(15)-------------------|
|-12----12--14-12-14-----------|------------------------|
|-12-14-12--14----14-12--------|------------------------|
|----14------------------------|------------------------|
|------------------------------|------------------------|
|
|  Q     H.                        E  E E E +E  E E E
|------------------------------|------------------------|
|------------------------------|------------------------|
|--------0---------------------|------------------------|
|------------------------------|----------2-(2)---------|
|------------------------------|--------0-------2-0-----|
|-/3---------------------------|---0--2-------------3---|
|
|  Q     H.                        E  E E E +E  E E E
|------------------------------|------------------------|
|------------------------------|------------------------|
|--------0---------------------|------------------------|
|------------------------------|----------2-(2)-0-------|
|------------------------------|------0-3---------3-0---|
|-/3---------------------------|---3--------------------|


   Verse
    $
    $$
     W            E E E E E E E E    Q  H.        +H         H          4x
||--------------|-----------------|-------------|-----------------------||
||o-------------|-1-0-------------|-------------|----------------------o||
||--------------|-----2-0---------|-----0-------|-(0)-------------------||
||--------------|---------3-2-0---|-------------|-----------------------||
||o-------------|-----------------|-------------|----------------------o||
||--------------|---------------2-|-/3----------|-----------------------||
|
|    Q  H.        E E E E E E E E    Q  H.         E  E E E +E  E E E   4x
||--------------|-----------------|-------------|-----------------------||
||o-------------|-----------------|-------------|----------------------o||
||------0-------|-----------------|-----0-------|-----------------------||
||--------------|-3-2-0-----------|-------------|---------2-(2)---------||
||o-------------|-------3-2-0-----|-------------|-------0-------2-0----o||
||--/3----------|-------------3-0-|-/3----------|--0--2-------------3---||
|
|    Q  H.        E E E E E E E E    Q  H.         E  E E E +E  E E E   4x
||--------------|-----------------|-------------|-----------------------||
||o-------------|-----------------|-------------|----------------------o||
||------0-------|-2-0-------------|-----0-------|-----------------------||
||--------------|-----3-2-0-------|-------------|---------2-(2)-0-------||
||o-------------|-----------3-2-0-|-------------|-----0-3---------3-0--o||
||--/3----------|-----------------|-/3----------|--3--------------------||


   Chorus
    D                           Em7/CDsus2G
    H      Q  Q    +W           H      Q  Q    +W
||--2---------2--|-(2)--------|-0---------3--|-(3)----------------|
||o-3---------3--|-(3)--------|-3---------3--|-(3)----------------|
||--2---------2--|-(2)--------|-0---------0--|-(0)----------------|
||--0---------0--|-(0)--------|-2---------0--|-(0)----------------|
||o--------------|------------|-3---------2--|-(2)----------------|
||---------------|------------|-----------3--|-(3)----------------|
|
|   Q.   E Q  Q    +W           Q.   E Q  Q    +E  E E E E E E E
||--2----2----2--|-(2)--------|-0----0----3--|-(3)----------------|
||o-3----3----3--|-(3)--------|-3----3----3--|-(3)----------------|
||--2---------2--|-(2)--------|-0---------0--|-(0)----------------|
||--0---------0--|-(0)--------|-2---------0--|-(0)----------------|
||o--------------|------------|-3---------2--|-(2)-------0-2-3-4--|
||---------------|------------|-----------3--|-(3)-0-2-3----------|
|
|   H      Q  Q    +W           H      Q  Q    +E  E E E E E E E
||--2---------2--|-(2)--------|-0---------3--|-(3)----------------|
||o-3---------3--|-(3)--------|-3---------3--|-(3)----------------|
||--2---------2--|-(2)--------|-0---------0--|-(0)----------------|
||--0---------0--|-(0)--------|-2---------0--|-(0)----------------|
||o--------------|------------|-3---------2--|-(2)-------0-2-3p0--|
||---------------|------------|-----------3--|-(3)-0-2-3----------|


                             1.
  D
  H      Q  Q    +W           E E E E +E  E Q    H     q  Q
|-2---------2--|-(2)--------|------------------|-2-----2------||
|-3---------3--|-(3)--------|------------------|-3-----3-----o||
|-2---------2--|-(2)--------|-----0---------0--|-2-----2------||
|-0---------0--|-(0)--------|---2---------0----|-0-----0------||
|--------------|------------|-3-----2-(2)------|-------------o||
|--------------|------------|------------------|--------------||
|
| Q.   E Q  Q    +W           E E E E +E  E Q    H     q  Q
|-2----2----2--|-(2)--------|------------------|------14------||
|-3----3----3--|-(3)--------|------------------|------15-----o||
|-2---------2--|-(2)--------|-----0---------0--|------14------||
|-0---------0--|-(0)--------|---2---------0----|-0------------||
|--------------|------------|-3-----2-(2)------|-------------o||
|--------------|------------|------------------|--------------||
|
| H      Q  Q    +W           E E E E +E  E Q    H     q  Q
|-2---------2--|-(2)--------|------------------|-2-----2------||
|-3---------3--|-(3)--------|------------------|-3-----3-----o||
|-2---------2--|-(2)--------|-----0---------0--|-2-----2------||
|-0---------0--|-(0)--------|---2---------0----|-0-----0------||
|--------------|------------|-3-----2-(2)------|-------------o||
|--------------|------------|------------------|--------------||


  2.
                To Coda
                To Coda
  E E E E E E Q    +W
|----------------|---------||
|----------------|---------||
|----------------|---------||
|-3-2-0----------|---------||
|-------3-2-0----|---------||
|-------------1--|-(1)-----||
|
| E E E E E E Q    +W
|----------------|---------||
|----------------|---------||
|-2-0------------|---------||
|-----3-2-0------|---------||
|-----------3----|---------||
|-------------1--|-(1)-----||
|
| E E E E E E Q    +W
|----------------|---------||
|----------------|---------||
|----------------|---------||
|-3-2-0----------|---------||
|-------3-2-0----|---------||
|-------------1--|-(1)-----||


 Interlude
  D5/A
   Q       H.             E  E  +E   E  +Q     E  E
|----------------------|-15-------------------------|
|-15------15-----------|----------------------------|
|-14pb16--14pb16=======|====14r(14)-12-(12)---------|
|----------------------|----------------------12-14-|
|----------------------|----------------------------|
|----------------------|----------------------------|
|
|  Q       H.             E  E   E   E   E  E  E  E
|----------------------|----------------------------|
|----------------------|----------------------------|
|----------0-----------|----------------------------|
|----------------------|--3--2---0------------------|
|----------------------|-------------3---2--0-------|
|-/3-------------------|-----------------------3--0-|
|
|  Q       H.             E  E   E   E   E  E  E  E
|----------------------|----------------------------|
|----------------------|----------------------------|
|----------0-----------|--2--0----------------------|
|----------------------|---------3---2---0----------|
|----------------------|--------------------3--2--0-|
|-/3-------------------|----------------------------|


   E  E     +E   E  E  E  E  E    H        E   E  E  E
|---------------12-------------|------------------------|
|------------------15-12-------|------------------------|
|-12-14b16-(14)----------14-12-|-12---------------------|
|------------------------------|------------------------|
|------------------------------|-----------------10-12s=|
|------------------------------|----------10--12--------|
|
|  Q         H.                   E E E E +E   E  E  E
|------------------------------|------------------------|
|------------------------------|------------------------|
|------------0-----------------|------------------------|
|------------------------------|--------2-(2)-----------|
|------------------------------|------0--------2--0-----|
|-/3---------------------------|--0-2----------------3--|
|
|  Q         H.                   E E E E +E   E  E  E
|------------------------------|------------------------|
|------------------------------|------------------------|
|------------0-----------------|------------------------|
|------------------------------|--------2-(2)--0--------|
|------------------------------|----0-3-----------3--0--|
|-/3---------------------------|--3---------------------|


   E  E  E   E  E  E  E  E       +E   E  E  E  E  E  Q
|-----------------------------|------12-------------------|
|-----------------------------|---------15-12-------------|
|--------------------12-14b16-|-(14)----------14-12-12/---|
|----12-12-----12-14----------|---------------------------|
|-14--------14----------------|---------------------------|
|-----------------------------|---------------------------|
|
|  Q     H.                       E   E  E  E  E  E  E  E
|-----------------------------|---------------------------|
|-----------------------------|---------------------------|
|--------0--------------------|---------------------------|
|-----------------------------|---3---2--0----------------|
|-----------------------------|-------------3--2--0-------|
|-/3--------------------------|----------------------3--0-|
|
|  Q     H.                       E   E  E  E  E  E  E  E
|-----------------------------|---------------------------|
|-----------------------------|---------------------------|
|--------0--------------------|---2---0-------------------|
|-----------------------------|----------3--2--0----------|
|-----------------------------|-------------------3--2--0-|
|-/3--------------------------|---------------------------|


                                         D.S. al Coda
  E5       G5        E5/B    A5/E      G5/D
   E  E E   E   E  E  E  E    E      E  E  E  H
|-----------------15----17-|-17pb18-17-15----15--------||
|----15----15--17-15-17-17-|-17pb18-17-15-17-15--------||
|-16-------12/-16----16----|--------------16-----------||
|-14-12--------------------|---------------------------||
|--------------------------|---------------------------||
|--------------------------|---------------------------||
|
|  Q    H.                    E      E  E  E +E  E E E
|--------------------------|---------------------------||
|--------------------------|---------------------------||
|-------0------------------|---------------------------||
|--------------------------|---------------2-(2)-------||
|--------------------------|------------0--------2-0---||
|-/3-----------------------|--0------2---------------3-||
|
|  Q    H.                    E      E  E  E +E  E E E
|--------------------------|---------------------------||
|--------------------------|---------------------------||
|-------0------------------|---------------------------||
|--------------------------|---------------2-(2)-0-----||
|--------------------------|---------0--3----------3-0-||
|-/3-----------------------|--3------------------------||


 Guitar Solo
  &
   Q     H       +Q     Q   E E +E  E E E
|---------------------|-------------------|
|---------------------|-----------------3-|
|--2pb3--2pb3r===(2)--|-0-----0-(0)-2h4---|
|---------------------|-----0-------------|
|---------------------|-------------------|
|---------------------|-------------------|
|
|  Q     H.             E E E E  E  E E E
|---------------------|-------------------|
|---------------------|-------------------|
|--------0------------|-------------------|
|---------------------|-3-2-0-------------|
|---------------------|-------3--2--0-----|
|-/3------------------|---------------3-0-|
|
|  Q     H.             E E E E  E  E E E
|---------------------|-------------------|
|---------------------|-------------------|
|--------0------------|-2-0---------------|
|---------------------|-----3-2--0--------|
|---------------------|-------------3-2-0-|
|-/3------------------|-------------------|


   E E E  E E    E E E   Q.     E  E  E E E
|----------------------|--------------3-----|
|--5-3-----------------|--------------------|
|------4--0-2pb3-2-0---|-0------2s=4----5s7-|
|--------------------2-|--------------------|
|----------------------|--------------------|
|----------------------|--------------------|
|
|  Q   H.                E  E E E +E  E E E
|----------------------|--------------------|
|----------------------|--------------------|
|------0---------------|--------------------|
|----------------------|--------2-(2)-------|
|----------------------|------0-------2-0---|
|-/3-------------------|-0--2-------------3-|
|
|  Q   H.                E  E E E +E  E E E
|----------------------|--------------------|
|----------------------|--------------------|
|------0---------------|--------------------|
|----------------------|--------2-(2)-0-----|
|----------------------|----0-3---------3-0-|
|-/3-------------------|-3------------------|


   H.        E E   E E E E E E E E
|--7-------------|-7-----------3---|
|----------------|-----------------|
|------------5s7-|-----5---4s5-----|
|----------------|-----------------|
|----------------|-----------------|
|----------------|-----------------|
|
|  Q   H.          E E E E E E E E
|----------------|-----------------|
|----------------|-----------------|
|------0---------|-----------------|
|----------------|-3-2-0-----------|
|----------------|-------3-2-0-----|
|-/3-------------|-------------3-0-|
|
|  Q   H.          E E E E E E E E
|----------------|-----------------|
|----------------|-----------------|
|------0---------|-2-0-------------|
|----------------|-----3-2-0-------|
|----------------|-----------3-2-0-|
|-/3-------------|-----------------|


   E   E   Q   E    +Q.     E E E E +E   E  E  E
|-------------------------|----------------------|
|-[5]---------------------|----------------------|
|-----[5]------2pb3r(2)---|-0---0-0-(0)-------12-|
|---------[5]-------------|---2---------12s14----|
|-------------------------|----------------------|
|-------------------------|----------------------|
|
|  Q       H.               E E E E +E   E  E  E
|-------------------------|----------------------|
|-------------------------|----------------------|
|----------0--------------|----------------------|
|-------------------------|-------2-(2)----------|
|-------------------------|-----0--------2--0----|
|-/3----------------------|-0-2----------------3-|
|
|  Q       H.               E E E E +E   E  E  E
|-------------------------|----------------------|
|-------------------------|----------------------|
|----------0--------------|----------------------|
|-------------------------|-------2-(2)--0-------|
|-------------------------|---0-3-----------3--0-|
|-/3----------------------|-3--------------------|


  D
   H          Q       Q     +H.       Q
|------------------------|---------------|
|-15pb17-----15pb17--15--|-(15)------12--|
|------------------------|---------------|
|------------------------|---------------|
|------------------------|---------------|
|------------------------|---------------|
|
|  Q.      E  Q       Q     +W
|--2-------2----------2--|--(2)----------|
|--3-------3----------3--|--(3)----------|
|--2------------------2--|--(2)----------|
|--0------------------0--|--(0)----------|
|------------------------|---------------|
|------------------------|---------------|
|
|  H          Q       Q     +W
|--2------------------2--|--(2)----------|
|--3------------------3--|--(3)----------|
|--2------------------2--|--(2)----------|
|--0------------------0--|--(0)----------|
|------------------------|---------------|
|------------------------|---------------|


  Em7/C             G
   E  E  E  E  E  E  Q     +H          Q    E  E
|-----------------------|------------------------|
|-13p12-13p12-13p12-----|------------------------|
|-------------------12--|-(12)-------------12-12-|
|-----------------------|------------/14---------|
|-----------------------|------------------------|
|-----------------------|------------------------|
|
|  Q.       E  Q     Q     +E  E E E   E E  E  E
|--0--------0--------3--|--(3)-------------------|
|--3--------3--------3--|--(3)-------------------|
|--0-----------------0--|--(0)-------------------|
|--2-----------------0--|--(0)-------------------|
|--3-----------------2--|--(2)---------0-2--3--4-|
|--------------------3--|--(3)-0-2-3-------------|
|
|  H           Q     Q     +W
|--0-----------------3--|--(3)-------------------|
|--3-----------------3--|--(3)-------------------|
|--0-----------------0--|--(0)-------------------|
|--2-----------------0--|--(0)-------------------|
|--3-----------------2--|--(2)-------------------|
|--------------------3--|--(3)-------------------|


                                                       D.S.S. al Dbl. Coda
  D                                             A5/E        E5/B
    Q    E  E  E  E  Q     +H       Q   q     E  E  E  E  E  E  Q     +W
|-------------------15--|-(15)---------15--|-15-17-15----15--------|----------||
|-------15----15-17-----|---------/17------|----17-15-17----17-----|----------||
|-/16------16-----------|------------------|----------16-17-16-17--|-(17)-----||
|-----------------------|------------------|-------------------17--|-(17)-----||
|-----------------------|------------------|-----------------------|----------||
|-----------------------|------------------|-----------------------|----------||
|
|   Q.      E  Q     Q     +W                 E  E  E  E  E  E  Q     +W
|---2-------2--------2--|--(2)-------------|-----------------------|----------||
|---3-------3--------3--|--(3)-------------|-----------------------|----------||
|---2----------------2--|--(2)-------------|--2--0-----------------|----------||
|---0----------------0--|--(0)-------------|--------3--2--0--------|----------||
|-----------------------|------------------|-----------------3-----|----------||
|-----------------------|------------------|--------------------1--|--(1)-----||
|
|   H          Q     Q     +W                 E  E  E  E  E  E  Q     +W
|---2----------------2--|--(2)-------------|-----------------------|----------||
|---3----------------3--|--(3)-------------|-----------------------|----------||
|---2----------------2--|--(2)-------------|-----------------------|----------||
|---0----------------0--|--(0)-------------|--3--2--0--------------|----------||
|-----------------------|------------------|-----------3--2--0-----|----------||
|-----------------------|------------------|--------------------1--|--(1)-----||


 Outro Solo
  &&
  G                         F/C          Em7/C
  Gtr III
   E  E  E  E  E   Q.        E      +Q.     +Q.          +E
|-------------------------|----------------------------------|
|-------------------------|----------------------------------|
|-------12----12--12------|-14pb16r(14)----(14)b16======(14)-|
|-12h14----14-------------|----------------------------------|
|-------------------------|----------------------------------|
|-------------------------|----------------------------------|
|
| Gtrs I, II
|  Q     E  E +E   E  E E    E       Q   E  +E      E Q
|--3-----3--3-(3)--3--3-3-|--1-------1---0--(0)-----0-0------|
|--3-----3--3-(3)--3--3-3-|--1-------1---3--(3)-----3-3------|
|--0-----0--0-(0)--0--0-0-|--2-------2---0--(0)-----0-0------|
|--0-----0--0-(0)--0--0-0-|--3-------3---2--(2)-----2-2------|
|--2-----2--2-(2)--2--2-2-|--3-------3---3--(3)-----3-3------|
|--3-----3--3-(3)--3--3-3-|--x-------x-----------------------|


  G                              F/C     Em7/C
   E  Q    +E   E   E  S  S  E    Q    E  E  Q      E  E
|------------------------------|-------------------------|
|-15---------------------------|-------------------------|
|----14r==(14)-14--12-14p12----|-12----------------------|
|---------------------------14-|------14-12-14-----14-12-|
|------------------------------|-------------------------|
|------------------------------|-------------------------|
|
|  Q    E   E  +E   E  E     E    E Q     E +E  Q.
|--3----3---3--(3)--3--3-----3-|--1-1-----0-(0)-0--------|
|--3----3---3--(3)--3--3-----3-|--1-1-----3-(3)-3--------|
|--0----0---0--(0)--0--0-----0-|--2-2-----0-(0)-0--------|
|--0----0---0--(0)--0--0-----0-|--3-3-----2-(2)-2--------|
|--2----2---2--(2)--2--2-----2-|--3-3-----3-(3)-3--------|
|--3----3---3--(3)--3--3-----3-|--x-x--------------------|


  G                               F/C               Em7/C
   S  S  E  S  S  E  E   E  E E    Q    E  E  E   E  E  E
|-------------------------------|-------------------------|
|-------------------------------|-------------------------|
|-------------------------------|-------------------------|
|-14p12----12h14p12-------------|-------------------------|
|-------14----------14--13-12---|-10-------------10-12s14-|
|-------------------------------|------12-10-12-----------|
|
|  Q        E     E +E   E  E E    E Q     E +E   E  Q
|--3--------3-----3-(3)--3--3-3-|--1-1-----0-(0)--0--0----|
|--3--------3-----3-(3)--3--3-3-|--1-1-----3-(3)--3--3----|
|--0--------0-----0-(0)--0--0-0-|--2-2-----0-(0)--0--0----|
|--0--------0-----0-(0)--0--0-0-|--3-3-----2-(2)--2--2----|
|--2--------2-----2-(2)--2--2-2-|--3-3-----3-(3)--3--3----|
|--3--------3-----3-(3)--3--3-3-|--x-x--------------------|


  G                              F/C           Em7/C
                                                                   ~~
   E  E  E  E  E   E  E  E        +Q     Q        Q         E      E
|------------------------------|---------------------------------------|
|-----------------------15pb17-|-(15)---15pb17---15pb17----15pb17------|
|-------------12-----12--------|----------------------------------12---|
|-12----12-14-----14-----------|---------------------------------------|
|----14------------------------|---------------------------------------|
|------------------------------|---------------------------------------|
|
|  Q     E  E +E   E  E  E         E  Q        E +E     Q.
|--3-----3--3-(3)--3--3--3-----|---1--1--------0-(0)----0--------------|
|--3-----3--3-(3)--3--3--3-----|---1--1--------3-(3)----3--------------|
|--0-----0--0-(0)--0--0--0-----|---2--2--------0-(0)----0--------------|
|--0-----0--0-(0)--0--0--0-----|---3--3--------2-(2)----2--------------|
|--2-----2--2-(2)--2--2--2-----|---3--3--------3-(3)----3--------------|
|--3-----3--3-(3)--3--3--3-----|---x--x--------------------------------|


  G                                 F/C                         Em7/C
    ~~~~
   +Q    E  E  S   S  E  E  E        +E   E  Q        E   Q        E
|---------------------------------|----------------------------------|
|---------------------------------|------15----------15-----------15-|
|-(12)--14-12-14p=12----12-14pb16-|-(14)----14pb16-------14pb16------|
|--------------------14-----------|----------------------------------|
|---------------------------------|----------------------------------|
|---------------------------------|----------------------------------|
|
|   Q    E  E +E      E  E  E         E   Q        E +E   E     Q
|---3----3--3-(3)-----3--3--3-----|---1---1--------0-(0)--0-----0----|
|---3----3--3-(3)-----3--3--3-----|---1---1--------3-(3)--3-----3----|
|---0----0--0-(0)-----0--0--0-----|---2---2--------0-(0)--0-----0----|
|---0----0--0-(0)-----0--0--0-----|---3---3--------2-(2)--2-----2----|
|---2----2--2-(2)-----2--2--2-----|---3---3--------3-(3)--3-----3----|
|---3----3--3-(3)-----3--3--3-----|---x---x--------------------------|


  G                                    F/C         Em7/C
   Q       E  E       +E   E  E  +E     E  E  S  S  S  S  Q     E E
|------------------------------------|-------------------------------|
|---------15--------------15---------|-------------------------------|
|-14pb16-----14pb16==(14)----14r(14)-|-14-12-14p12-------12\----2s4--|
|------------------------------------|-------------14-14-------------|
|------------------------------------|-------------------------------|
|------------------------------------|-------------------------------|
|
|  Q       E  E       +E   E  E   E     E  Q        E    +E  Q.
|--3-------3--3-------(3)--3--3---3--|--1--1--------0----(0)-0-------|
|--3-------3--3-------(3)--3--3---3--|--1--1--------3----(3)-3-------|
|--0-------0--0-------(0)--0--0---0--|--2--2--------0----(0)-0-------|
|--0-------0--0-------(0)--0--0---0--|--3--3--------2----(2)-2-------|
|--2-------2--2-------(2)--2--2---2--|--3--3--------3----(3)-3-------|
|--3-------3--3-------(3)--3--3---3--|--x--x-------------------------|


  G                       F/C              Em7/C
  E E E E     +H           E  Q  +E   E  E S S E
|-----------------------|--6---------------------|
|---3---6pb8==(6)-------|-(6)-6r=(6)--6--3-6p3---|
|-5---5-----------------|----------------------5-|
|-----------------------|------------------------|
|-----------------------|------------------------|
|-----------------------|------------------------|
|
| Q   E E     +E  E E E    E  Q   E  +E  E Q
|-3---3-3-----(3)-3-3-3-|--1--1---0--(0)-0-0-----|
|-3---3-3-----(3)-3-3-3-|--1--1---3--(3)-3-3-----|
|-0---0-0-----(0)-0-0-0-|--2--2---0--(0)-0-0-----|
|-0---0-0-----(0)-0-0-0-|--3--3---2--(2)-2-2-----|
|-2---2-2-----(2)-2-2-2-|--3--3---3--(3)-3-3-----|
|-3---3-3-----(3)-3-3-3-|--x--x------------------|


  G                           F/C   Em7/C
                    |--3--|
  E S S E E  S  S E E E   E   E E E E  Q     E E
|---------------------------|---------------------|
|-3-6p3---3--6p=3---3-6p==3-|-3-------------------|
|-------5---------5---------|---3h4h5-------------|
|---------------------------|----------3-----5-3--|
|---------------------------|---------------------|
|---------------------------|---------------------|
|
| Q     E E +E    E E   E     E Q   E +E  Q.
|-3-----3-3-(3)---3-3---3---|-1-1---0-(0)-0-------|
|-3-----3-3-(3)---3-3---3---|-1-1---3-(3)-3-------|
|-0-----0-0-(0)---0-0---0---|-2-2---0-(0)-0-------|
|-0-----0-0-(0)---0-0---0---|-3-3---2-(2)-2-------|
|-2-----2-2-(2)---2-2---2---|-3-3---3-(3)-3-------|
|-3-----3-3-(3)---3-3---3---|-x-x-----------------|


  G                         F/C         Em7/C
  S S E E S S  E  E E E   Q   E E  E  E E E
|-----------------------|-------------------|
|-----------------------|-------------------|
|-----------------------|-------------------|
|-5p3---3-5p3-----------|-------------------|
|-----5--------5--4-3---|-1-----------1-3s5-|
|-----------------------|-----3-1--3--------|
|
| Q     E E   +E  E E E   E Q   E +E  E Q
|-3-----3-3---(3)-3-3-3-|-1-1---0-(0)-0-0---|
|-3-----3-3---(3)-3-3-3-|-1-1---3-(3)-3-3---|
|-0-----0-0---(0)-0-0-0-|-2-2---0-(0)-0-0---|
|-0-----0-0---(0)-0-0-0-|-3-3---2-(2)-2-2---|
|-2-----2-2---(2)-2-2-2-|-3-3---3-(3)-3-3---|
|-3-----3-3---(3)-3-3-3-|-x-x---------------|


  G                      F/C        Em7/C
  E E E E  E  E E E      +Q    Q       Q       Q
|----------------------|-------------------------------|
|----------------------|-------------------------------|
|----------3----3-5pb7-|-(5)---5pb7----5pb7----5pb7----|
|-3---3-5-----5--------|-------------------------------|
|---5------------------|-------------------------------|
|----------------------|-------------------------------|
|
| Q   E E +E  E E E       E  Q      E +E    Q.
|-3---3-3-(3)-3-3-3----|--1--1------0-(0)---0----------|
|-3---3-3-(3)-3-3-3----|--1--1------3-(3)---3----------|
|-0---0-0-(0)-0-0-0----|--2--2------0-(0)---0----------|
|-0---0-0-(0)-0-0-0----|--3--3------2-(2)---2----------|
|-2---2-2-(2)-2-2-2----|--3--3------3-(3)---3----------|
|-3---3-3-(3)-3-3-3----|--x--x-------------------------|


  G                           F/C               Em7/C
  Q     E E    +E  E Q        E Q     E  Q      E E
|---------------------------|---------------------------|
|-------6----------6--------|-6-------6---------6-------|
|-5pb7----5pb7-(5)---5pb7---|---5pb7-----5pb7-----5pb7==|
|---------------------------|---------------------------|
|---------------------------|---------------------------|
|---------------------------|---------------------------|
|
| Q     E E    +E  E E    E   E Q     E +E    E Q
|-3-----3-3----(3)-3-3----3-|-1-1-----0-(0)---0-0-------|
|-3-----3-3----(3)-3-3----3-|-1-1-----3-(3)---3-3-------|
|-0-----0-0----(0)-0-0----0-|-2-2-----0-(0)---0-0-------|
|-0-----0-0----(0)-0-0----0-|-3-3-----2-(2)---2-2-------|
|-2-----2-2----(2)-2-2----2-|-3-3-----3-(3)---3-3-------|
|-3-----3-3----(3)-3-3----3-|-x-x-----------------------|


  G                         F/C   Em7/C
  +E  E E +E   E  E S S E   Q   E E  Q     Q
|-------------------------|-------------------|
|-----6-------------------|-------------------|
|-(5)---5r(5)--5--3-5p3---|-3-----------------|
|-----------------------5-|-----5-3--5--------|
|-------------------------|-------------------|
|-------------------------|-------------------|
|
|  Q    E  E  +E  E E   E   E Q   E +E  Q.
|--3----3--3--(3)-3-3---3-|-1-1---0-(0)-0-----|
|--3----3--3--(3)-3-3---3-|-1-1---3-(3)-3-----|
|--0----0--0--(0)-0-0---0-|-2-2---0-(0)-0-----|
|--0----0--0--(0)-0-0---0-|-3-3---2-(2)-2-----|
|--2----2--2--(2)-2-2---2-|-3-3---3-(3)-3-----|
|--3----3--3--(3)-3-3---3-|-x-x---------------|


  G                                 F/C             Em7/C
   Q       E  E  Q     E  E    S  S  E  E  E  E   E  E  E
|---------------------------|---------------------------------|
|---------11----11----------|--------------------------13pb15-|
|-10pb12-----12-------12-10-|-12-10----------12-----12--------|
|---------------------------|-------12-12-14-----14-----------|
|---------------------------|---------------------------------|
|---------------------------|---------------------------------|
|
|  Q       E  E +E  E  E  E    E     Q     E +E   E  Q
|--3-------3--3-(3)-3--3--3-|--1-----1-----0-(0)--0--0--------|
|--3-------3--3-(3)-3--3--3-|--1-----1-----3-(3)--3--3--------|
|--0-------0--0-(0)-0--0--0-|--2-----2-----0-(0)--0--0--------|
|--0-------0--0-(0)-0--0--0-|--3-----3-----2-(2)--2--2--------|
|--2-------2--2-(2)-2--2--2-|--3-----3-----3-(3)--3--3--------|
|--3-------3--3-(3)-3--3--3-|--x-----x------------------------|


  G                                 F/C            Em7/C
   +Q    Q        E   E  E  E        +E   E  Q        E   Q       E
|---------------------------------|---------------------------------|
|-(13)----------------------------|------15----------15----------15-|
|-------14pb16---12-----12-14pb16-|-(14)----14pb16-------14pb16-----|
|--------------------14-----------|---------------------------------|
|---------------------------------|---------------------------------|
|---------------------------------|---------------------------------|
|
|   Q    E     E +E   E  E  E         E   Q        E +E   Q.
|---3----3-----3-(3)--3--3--3-----|---1---1--------0-(0)--0---------|
|---3----3-----3-(3)--3--3--3-----|---1---1--------3-(3)--3---------|
|---0----0-----0-(0)--0--0--0-----|---2---2--------0-(0)--0---------|
|---0----0-----0-(0)--0--0--0-----|---3---3--------2-(2)--2---------|
|---2----2-----2-(2)--2--2--2-----|---3---3--------3-(3)--3---------|
|---3----3-----3-(3)--3--3--3-----|---x---x-------------------------|


  G                                    F/C                  Em7/C
   Q       E  E       +E   E  E  +E     E  E  S  S  E  Q     E  E
|------------------------------------|--------------------------------|
|---------15--------------15---------|-------------------------15pb17-|
|-14pb16-----14pb16==(14)----14r(14)-|-14-12-14p12----12----12--------|
|------------------------------------|-------------14-----------------|
|------------------------------------|--------------------------------|
|------------------------------------|--------------------------------|
|
|  Q       E  E       +E   E  E   E     E  Q        E +E  E  Q
|--3-------3--3-------(3)--3--3---3--|--1--1--------0-(0)-0--0--------|
|--3-------3--3-------(3)--3--3---3--|--1--1--------3-(3)-3--3--------|
|--0-------0--0-------(0)--0--0---0--|--2--2--------0-(0)-0--0--------|
|--0-------0--0-------(0)--0--0---0--|--3--3--------2-(2)-2--2--------|
|--2-------2--2-------(2)--2--2---2--|--3--3--------3-(3)-3--3--------|
|--3-------3--3-------(3)--3--3---3--|--x--x--------------------------|


  G                                     F/C     Em7/C
   +Q    Q        Q        E      +E     Q    E  E  S   S  E   E  a  E
|-------------------------------------|---------------------------------|
|-(15)--15pb17---15pb17---15pb17r(15)-|---------------------------------|
|-------------------------------------|-12---14-12-14p=12-----12-14s16--|
|-------------------------------------|-------------------14------------|
|-------------------------------------|---------------------------------|
|-------------------------------------|---------------------------------|
|
|   Q    E     E +E     E  E       E     E Q     E +E      Q.
|---3----3-----3-(3)----3--3-------3--|--1-1-----0-(0)-----0------------|
|---3----3-----3-(3)----3--3-------3--|--1-1-----3-(3)-----3------------|
|---0----0-----0-(0)----0--0-------0--|--2-2-----0-(0)-----0------------|
|---0----0-----0-(0)----0--0-------0--|--3-3-----2-(2)-----2------------|
|---2----2-----2-(2)----2--2-------2--|--3-3-----3-(3)-----3------------|
|---3----3-----3-(3)----3--3-------3--|--x-x----------------------------|


    G                            F/C             Em7/C
     E  E  E  E  E   Q.        E  E  E  E  +Q     E  E
||--------------------------|--------------------------|
||o-------------------------|--------------------------|
||--------12----12--12------|-------12-12-(12)---12-12-|
||--12h14----14-------------|-12h14--------------------|
||o-------------------------|--------------------------|
||--------------------------|--------------------------|
|
|    Q     E  E +E   E  E E    E  Q     E  +E  E  Q
||---3-----3--3-(3)--3--3-3-|--1--1-----0--(0)-0--0----|
||o--3-----3--3-(3)--3--3-3-|--1--1-----3--(3)-3--3----|
||---0-----0--0-(0)--0--0-0-|--2--2-----0--(0)-0--0----|
||---0-----0--0-(0)--0--0-0-|--3--3-----2--(2)-2--2----|
||o--2-----2--2-(2)--2--2-2-|--3--3-----3--(3)-3--3----|
||---3-----3--3-(3)--3--3-3-|--x--x--------------------|


  G                                    F/C        Em7/C
   E  E  E  E  E   Q        +E          +E   E  E  +E   Q      E  E
|------------------------------------|-------------------------------|
|------------------------------------|------15-----------------------|
|-------12----12--14pb16r==(14)pb15==|=(14)----14r(14)-12-----12-12--|
|-12h14----14------------------------|-------------------------------|
|------------------------------------|-------------------------------|
|------------------------------------|-------------------------------|
|
|  Q     E  E +E   E     E   E           E   Q      E  +E  Q.
|--3-----3--3-(3)--3-----3---3-------|---1---1------0--(0)-0---------|
|--3-----3--3-(3)--3-----3---3-------|---1---1------3--(3)-3---------|
|--0-----0--0-(0)--0-----0---0-------|---2---2------0--(0)-0---------|
|--0-----0--0-(0)--0-----0---0-------|---3---3------2--(2)-2---------|
|--2-----2--2-(2)--2-----2---2-------|---3---3------3--(3)-3---------|
|--3-----3--3-(3)--3-----3---3-------|---x---x-----------------------|


  G                         F/C                Em7/CG
   E  E  E  E  E   Q    E    E  E  E  E  +H
|-------------------------|-----------------------|
|-------------------------|-----------------------|
|-------12----12--12---12-|-------12-12-(12)------|
|-12h14----14-------------|-12h14-----------------|
|-------------------------|-----------------------|
|-------------------------|-----------------------|
|
|  Q     E  E +E   E E  E    E  Q     E  +E  E Q
|--3-----3--3-(3)--3-3--3-|--1--1-----0--(0)-0-0--|
|--3-----3--3-(3)--3-3--3-|--1--1-----3--(3)-3-3--|
|--0-----0--0-(0)--0-0--0-|--2--2-----0--(0)-0-0--|
|--0-----0--0-(0)--0-0--0-|--3--3-----2--(2)-2-2--|
|--2-----2--2-(2)--2-2--2-|--3--3-----3--(3)-3-3--|
|--3-----3--3-(3)--3-3--3-|--x--x-----------------|


                                F/C              Em7/C
   E  E  E  E  E   Q        E    E      E  E      E  E      +E   E      +E
|-----------------------------|----------------------------------------------||
|-----------------15pb17---15-|-15pb17-15-15pb17-15-15pb17r(15)-15pb17r(15)-o||
|-------12----12--------------|----------------------------------------------||
|-12h14----14-----------------|----------------------------------------------||
|-----------------------------|---------------------------------------------o||
|-----------------------------|----------------------------------------------||
|
|  Q     E  E +E   E     E  E    E      Q         E +E       Q.
|--3-----3--3-(3)--3-----3--3-|--1------1---------0-(0)------0---------------||
|--3-----3--3-(3)--3-----3--3-|--1------1---------3-(3)------3--------------o||
|--0-----0--0-(0)--0-----0--0-|--2------2---------0-(0)------0---------------||
|--0-----0--0-(0)--0-----0--0-|--3------3---------2-(2)------2---------------||
|--2-----2--2-(2)--2-----2--2-|--3------3---------3-(3)------3--------------o||
|--3-----3--3-(3)--3-----3--3-|--x------x------------------------------------||


      G                      F/C            Em7/C
    a E  E E E +E  E E E   a E  E E E +E  E E E
||-----------------------|----------------------|
||o----------------------|----------------------|
||-----------------------|----------------------|
||--3s5--5-5-5-(5)-5-5-5-|-3s5--5-5-5-(5)-5-5-5-|
||o----------------------|----------------------|
||-----------------------|----------------------|
|
|     Q.     E +E  E Q       Q.     E +E  E Q
||----3------3-(3)-3-3---|---1------0-(0)-0-0---|
||o---3------3-(3)-3-3---|---1------3-(3)-3-3---|
||----0------0-(0)-0-0---|---2------0-(0)-0-0---|
||----0------0-(0)-0-0---|---3------2-(2)-2-2---|
||o---2------2-(2)-2-2---|---3------3-(3)-3-3---|
||----3------3-(3)-3-3---|---x------------------|


    G                      F/C    Em7/C
  a E  E E E +E  E E E   a E  E E E +E  E E E
|----------------------|------------------------||
|----------------------|-----------------------o||
|----------------------|------------------------||
|-3s5--5-5-5-(5)-5-5-5-|-3s5--5-5-5-(5)-5-5-5---||
|----------------------|-----------------------o||
|----------------------|------------------------||
|
|   Q.     E +E  E Q       Q.     E +E  E Q
|---3------3-(3)-3-3---|---1------0-(0)-0-0-----||
|---3------3-(3)-3-3---|---1------3-(3)-3-3----o||
|---0------0-(0)-0-0---|---2------0-(0)-0-0-----||
|---0------0-(0)-0-0---|---3------2-(2)-2-2-----||
|---2------2-(2)-2-2---|---3------3-(3)-3-3----o||
|---3------3-(3)-3-3---|---x--------------------||


  Gtr III
   E  E  Q     H             W
|-------------------------|-------------------------|
|-------------------------|-------------------------|
|-------------------------|-------------------------|
|--5----------------------|-------------------------|
|-------------------------|-------------------------|
|-------------------------|-------------------------|
|
| Gtr II
|                                        ~~
|  E  E  E  E  E  E  E  E    E  E  E  E  Q   a  Q
|-------------------------|-------------------------|
|-------------------------|-------------------------|
|----------------------11-|-12-11-12-13-14--14s21\--|
|-------11-12-14-12-14----|-------------------------|
|-12-14-------------------|-------------------------|
|-------------------------|-------------------------|
|
| Gtr I
|                                        ~~
|  E  E  E  E  E  E  E  E    E  E  E  E  Q   a  Q
|-------------------------|-------------------------|
|-------------------------|-------------------------|
|-------------------------|--9-----9-10-11--11s21\--|
|-----------9-10--9-10-12-|----12-------------------|
|--9-10-12----------------|-------------------------|
|-------------------------|-------------------------|


  D5/A                       G         F/C
  Gtr III
   Q       Q         +Q.      +E     E  E  E  E  +E   E  E  E
|---------------------------------|--------------------------------|
|-15------15--------(15)----------|------------------------15pb17==|
|-14pb16--14pb16====(14)r====(14)-|-12----12-12-(12)-12-12---------|
|---------------------------------|----14--------------------------|
|---------------------------------|--------------------------------|
|---------------------------------|--------------------------------|
|
| Gtrs I, II
|  Q       E      E  +E  E E   E     E  Q     E  +E   E  Q
|--3-------3------3--(3)-3-3---3--|--1--1-----1--(1)--1--1---------|
|--3-------3------3--(3)-3-3---3--|--1--1-----1--(1)--1--1---------|
|--0-------0------0--(0)-0-0---0--|--2--2-----2--(2)--2--2---------|
|--0-------0------0--(0)-0-0---0--|--3--3-----3--(3)--3--3---------|
|--2-------2------2--(2)-2-2---2--|--3--3-----3--(3)--3--3---------|
|--3-------3------3--(3)-3-3---3--|--x--x-----x--(x)--x--x---------|


  G                                 F/C             Em7/C
   +E   +E   E  E  E   S  S  E  E    Q    E  E  +E   E   E  E
|---------------------------------|---------------------------|
|-(15)r(15)-----------------------|---------------------------|
|-----------12----12--14p12----12-|-12------12-(12)-----12-12-|
|--------------14-----------14----|------14---------14--------|
|---------------------------------|---------------------------|
|---------------------------------|---------------------------|
|
|   Q        E  E +E   E     E  E    E Q     E  +E   Q.
|---3--------3--3-(3)--3-----3--3-|--1-1-----0--(0)--0--------|
|---3--------3--3-(3)--3-----3--3-|--1-1-----3--(3)--3--------|
|---0--------0--0-(0)--0-----0--0-|--2-2-----0--(0)--0--------|
|---0--------0--0-(0)--0-----0--0-|--3-3-----2--(2)--2--------|
|---2--------2--2-(2)--2-----2--2-|--3-3-----3--(3)--3--------|
|---3--------3--3-(3)--3-----3--3-|--x-x----------------------|


  G                                   F/C
   S  S  E  E  S  S  E   E  S  S  E    E  S  S  E  E  S   S  E  E  S  S
|-----------------------------------|-----------------------------------|
|-----------------------------------|-----------------------------------|
|-15p12----12-14p12-----12-15p12----|-12-14p12----12-15p=12----12-14p12-|
|-------14----------14-----------14-|----------14-----------14----------|
|-----------------------------------|-----------------------------------|
|-----------------------------------|-----------------------------------|
|
|  Q        E  E    +E   E  E     E    E  Q        E +E      E  Q
|--3--------3--3----(3)--3--3-----3-|--1--1--------1-(1)-----1--1-------|
|--3--------3--3----(3)--3--3-----3-|--1--1--------1-(1)-----1--1-------|
|--0--------0--0----(0)--0--0-----0-|--2--2--------2-(2)-----2--2-------|
|--0--------0--0----(0)--0--0-----0-|--3--3--------3-(3)-----3--3-------|
|--2--------2--2----(2)--2--2-----2-|--3--3--------3-(3)-----3--3-------|
|--3--------3--3----(3)--3--3-----3-|--x--x--------x-(x)-----x--x-------|


  G                             F/C              Em7/C
   E  E  S  S  E  E   E  E  E    E  E  E  E  +E   E  E  E
|-----------------------------|-----------------------------|
|-----------------------------|-----------------------------|
|----12-15p12----12-----------|-----------------------------|
|-14----------14-----14-12----|-----------------------------|
|--------------------------14-|-12-10-10-10-(10)-------10---|
|-----------------------------|------------------10h12------|
|
|  Q     E     E +E   E  E  E    E  Q     E  +E   Q.
|--3-----3-----3-(3)--3--3--3-|--1--1-----0--(0)--0---------|
|--3-----3-----3-(3)--3--3--3-|--1--1-----3--(3)--3---------|
|--0-----0-----0-(0)--0--0--0-|--2--2-----0--(0)--0---------|
|--0-----0-----0-(0)--0--0--0-|--3--3-----2--(2)--2---------|
|--2-----2-----2-(2)--2--2--2-|--3--3-----3--(3)--3---------|
|--3-----3-----3-(3)--3--3--3-|--x--x-----------------------|


  G                                               F/C
   E  E  E  E  E   E  E  E    E  S  S  E  E  Q     E  E
|--------------------------|----------------------------|
|--------------------------|----------------------------|
|--------------------------|----------------12-------12-|
|--------------------------|----------12-14-------14----|
|-------10--------10-------|-10-12s14-------------------|
|-10-12----10-12-----10-12-|----------------------------|
|
|  Q     E  E +E   E  E  E    E  Q        E +E  E  Q
|--3-----3--3-(3)--3--3--3-|--1--1--------1-(1)-1--1----|
|--3-----3--3-(3)--3--3--3-|--1--1--------1-(1)-1--1----|
|--0-----0--0-(0)--0--0--0-|--2--2--------2-(2)-2--2----|
|--0-----0--0-(0)--0--0--0-|--3--3--------3-(3)-3--3----|
|--2-----2--2-(2)--2--2--2-|--3--3--------3-(3)-3--3----|
|--3-----3--3-(3)--3--3--3-|--x--x--------x-(x)-x--x----|


  G                                         F/C         Em7/C
   S  S  E  S  S  E  S   S  E  S  S  S  S    S  S  E  E  E  +E   E     +E   E
|-------------------15p=12-12-------------|--------------------------------15---|
|----------15p12-12-----------15p12----12-|-------------------------------------|
|-14p12-12--------------------------14----|-14p12----12-12-(12)-14b16-(14)------|
|-----------------------------------------|-------12----------------------------|
|-----------------------------------------|-------------------------------------|
|-----------------------------------------|-------------------------------------|
|
|  Q        E     E +E      E  E     E       E     Q     E  +E   Q.
|--3--------3-----3-(3)-----3--3-----3----|--1-----1-----0--(0)--0--------------|
|--3--------3-----3-(3)-----3--3-----3----|--1-----1-----3--(3)--3--------------|
|--0--------0-----0-(0)-----0--0-----0----|--2-----2-----0--(0)--0--------------|
|--0--------0-----0-(0)-----0--0-----0----|--3-----3-----2--(2)--2--------------|
|--2--------2-----2-(2)-----2--2-----2----|--3-----3-----3--(3)--3--------------|
|--3--------3-----3-(3)-----3--3-----3----|--x-----x----------------------------|


  G                                        F/C
   E     +E   E  E     +E   E  E     +E     E  E     +E   E  E     +E   E  E
|------------15------------15------------|-15------------15------------15-------|
|----------------------------------------|--------------------------------------|
|-14b16-(14)----14b16-(14)----14b16-(14)-|----14b16-(14)----14b16-(14)----14b16-|
|----------------------------------------|--------------------------------------|
|----------------------------------------|--------------------------------------|
|----------------------------------------|--------------------------------------|
|
|  Q          E  E     +E   E  E      E     E  Q          E +E      E   Q
|--3----------3--3-----(3)--3--3------3--|--1--1----------1-(1)-----1---1-------|
|--3----------3--3-----(3)--3--3------3--|--1--1----------1-(1)-----1---1-------|
|--0----------0--0-----(0)--0--0------0--|--2--2----------2-(2)-----2---2-------|
|--0----------0--0-----(0)--0--0------0--|--3--3----------3-(3)-----3---3-------|
|--2----------2--2-----(2)--2--2------2--|--3--3----------3-(3)-----3---3-------|
|--3----------3--3-----(3)--3--3------3--|--x--x----------x-(x)-----x---x-------|


  G                               F/C                 Em7/C
   E  E  Q       Q       Q         Q       Q       E   S  S  E  E
|----15-------------------------|---------------------------------|
|-------------------------------|---------------------------15----|
|-14----14b16---14b16---14b16---|-14b16---14b16---12--14s16----16-|
|-------------------------------|---------------------------------|
|-------------------------------|---------------------------------|
|-------------------------------|---------------------------------|
|
|  Q     E    E +E    E  E    E    E    Q       E +E   Q.
|--3-----3----3-(3)---3--3----3-|--1----1-------0-(0)--0----------|
|--3-----3----3-(3)---3--3----3-|--1----1-------3-(3)--3----------|
|--0-----0----0-(0)---0--0----0-|--2----2-------0-(0)--0----------|
|--0-----0----0-(0)---0--0----0-|--3----3-------2-(2)--2----------|
|--2-----2----2-(2)---2--2----2-|--3----3-------3-(3)--3----------|
|--3-----3----3-(3)---3--3----3-|--x----x-------------------------|


  G                          F/C
   Q   Q    E   E  E  S  S    E  E  S  S  E  E   S  S  E  S  S
|-15--15---15-----15-17p15-|----15-17p15----15--17p15----15h18-|
|--------------17----------|-17----------17-----------17-------|
|--------------------------|-----------------------------------|
|--------------------------|-----------------------------------|
|--------------------------|-----------------------------------|
|--------------------------|-----------------------------------|
|
|  Q   E E +E   E  E  E       E  Q        E +E   E     Q
|--3---3-3-(3)--3--3--3----|--1--1--------1-(1)--1-----1-------|
|--3---3-3-(3)--3--3--3----|--1--1--------1-(1)--1-----1-------|
|--0---0-0-(0)--0--0--0----|--2--2--------2-(2)--2-----2-------|
|--0---0-0-(0)--0--0--0----|--3--3--------3-(3)--3-----3-------|
|--2---2-2-(2)--2--2--2----|--3--3--------3-(3)--3-----3-------|
|--3---3-3-(3)--3--3--3----|--x--x--------x-(x)--x-----x-------|


  G                                   F/C         Em7/C
   S  S  E  E  S  S  E   E  S  S  E    E  S  S  E  E  +E   E   E  E
|-18p15----15-17p15-----15-18p15----|-15-17p15----15-(15)-15--15-15--|
|-------17----------17-----------17-|----------17--------------------|
|-----------------------------------|--------------------------------|
|-----------------------------------|--------------------------------|
|-----------------------------------|--------------------------------|
|-----------------------------------|--------------------------------|
|
|  Q        E  E    +E   E  E     E    E  Q        E  +E   Q.
|--3--------3--3----(3)--3--3-----3-|--1--1--------0--(0)--0---------|
|--3--------3--3----(3)--3--3-----3-|--1--1--------3--(3)--3---------|
|--0--------0--0----(0)--0--0-----0-|--2--2--------0--(0)--0---------|
|--0--------0--0----(0)--0--0-----0-|--3--3--------2--(2)--2---------|
|--2--------2--2----(2)--2--2-----2-|--3--3--------3--(3)--3---------|
|--3--------3--3----(3)--3--3-----3-|--x--x--------------------------|


  G                                   F/C
   E  E  E  E  E   E  E  E    E  E  E  E  E   E  E  E
|-------15--------15-------|-15-------15--------15-20-|
|-15h17----15h17-----15h17-|----15h17----15h=17-------|
|--------------------------|--------------------------|
|--------------------------|--------------------------|
|--------------------------|--------------------------|
|--------------------------|--------------------------|
|
|  Q     E  E +E   E  E  E    E  Q     E +E   E  Q
|--3-----3--3-(3)--3--3--3-|--1--1-----1-(1)--1--1----|
|--3-----3--3-(3)--3--3--3-|--1--1-----1-(1)--1--1----|
|--0-----0--0-(0)--0--0--0-|--2--2-----2-(2)--2--2----|
|--0-----0--0-(0)--0--0--0-|--3--3-----3-(3)--3--3----|
|--2-----2--2-(2)--2--2--2-|--3--3-----3-(3)--3--3----|
|--3-----3--3-(3)--3--3--3-|--x--x-----x-(x)--x--x----|


           G                  F/C      Em7/C
   E  E  E  E  E   E  E  E     E  E  E  E  Q      E E
|-------19----18-----17-----|-------------------------|
|---------------------------|----12-------------------|
|-17s19----18-----17----17\-|-14----12-12-12--------0-|
|---------------------------|--------------------14---|
|---------------------------|-------------------------|
|---------------------------|-------------------------|
|
|  Q     E  E +E   E  E  E     E  Q     E +E  Q.
|--3-----3--3-(3)--3--3--3--|--1--1-----0-(0)-0-------|
|--3-----3--3-(3)--3--3--3--|--1--1-----3-(3)-3-------|
|--0-----0--0-(0)--0--0--0--|--2--2-----0-(0)-0-------|
|--0-----0--0-(0)--0--0--0--|--3--3-----2-(2)-2-------|
|--2-----2--2-(2)--2--2--2--|--3--3-----3-(3)-3-------|
|--3-----3--3-(3)--3--3--3--|--x--x-------------------|


  G                           F/C
  Q    H            +E  +E    E E E E +E  E E E
|---------------------------|-------------------|
|---------------------------|-------------------|
|-2b4--2b4==========(2)r(2)-|-0---0-0-(0)---0-2-|
|---------------------------|---2---------2-----|
|---------------------------|-------------------|
|---------------------------|-------------------|
|
| Q    E    E +E  E  E   E    E Q   E +E  E Q
|-3----3----3-(3)-3--3---3--|-1-1---1-(1)-1-1---|
|-3----3----3-(3)-3--3---3--|-1-1---1-(1)-1-1---|
|-0----0----0-(0)-0--0---0--|-2-2---2-(2)-2-2---|
|-0----0----0-(0)-0--0---0--|-3-3---3-(3)-3-3---|
|-2----2----2-(2)-2--2---2--|-3-3---3-(3)-3-3---|
|-3----3----3-(3)-3--3---3--|-x-x---x-(x)-x-x---|


  G                        F/C     Em7/C
  E    E E E  E  E S S E   E S S E E  Q     E E
|------------------------|------------------------|
|------------------------|------------------------|
|-2pb4-2-0----0--0-2p0---|-0-2p0---0--0-----------|
|----------2-----------2-|-------2----------0-0---|
|------------------------|------------------------|
|------------------------|------------------------|
|
| Q      E E +E  E E   E   E Q     E +E  Q.
|-3------3-3-(3)-3-3---3-|-1-1-----0-(0)-0--------|
|-3------3-3-(3)-3-3---3-|-1-1-----3-(3)-3--------|
|-0------0-0-(0)-0-0---0-|-2-2-----0-(0)-0--------|
|-0------0-0-(0)-0-0---0-|-3-3-----2-(2)-2--------|
|-2------2-2-(2)-2-2---2-|-3-3-----3-(3)-3--------|
|-3------3-3-(3)-3-3---3-|-x-x--------------------|


  G                   F/C
  E E E E  E  E E E   E E E E  E  E E E
|-------------------|-------------------|
|-------------------|-------------------|
|-----0-------0-----|-0-----0-------0---|
|-0h2---0h=2----0h2-|---0h2----0h=2---0h|
|-------------------|-------------------|
|-------------------|-------------------|
|
| Q   E E +E  E E E   E Q   E +E  E Q
|-3---3-3-(3)-3-3-3-|-1-1---1-(1)-1-1---|
|-3---3-3-(3)-3-3-3-|-1-1---1-(1)-1-1---|
|-0---0-0-(0)-0-0-0-|-2-2---2-(2)-2-2---|
|-0---0-0-(0)-0-0-0-|-3-3---3-(3)-3-3---|
|-2---2-2-(2)-2-2-2-|-3-3---3-(3)-3-3---|
|-3---3-3-(3)-3-3-3-|-x-x---x-(x)-x-x---|


  G                   F/C   Em7/C
  E E E E  E  E E E   E E E E +E  E  Q
|-------------------|-------------------|
|-------------------|-------------------|
|---0------0------0-|-----0-0-(0)-0--0--|
|-2---0h2-----0h2---|-0h2---------------|
|-------------------|-------------------|
|-------------------|-------------------|
|
| Q   E E +E  E E E   E Q   E +E  Q.
|-3---3-3-(3)-3-3-3-|-1-1---0-(0)-0-----|
|-3---3-3-(3)-3-3-3-|-1-1---3-(3)-3-----|
|-0---0-0-(0)-0-0-0-|-2-2---0-(0)-0-----|
|-0---0-0-(0)-0-0-0-|-3-3---2-(2)-2-----|
|-2---2-2-(2)-2-2-2-|-3-3---3-(3)-3-----|
|-3---3-3-(3)-3-3-3-|-x-x---------------|


       G                      F/C
    q   Q   E  E  E  E         +E   E  E  +E   E   E  E  E
|-/12-----------------------|------------------------------|
|---------------------------|------15----------------------|
|------12--12----12-14pb16==|=(14)----14r(14)-12-----12-12-|
|-------------14------------|---------------------14-------|
|---------------------------|------------------------------|
|---------------------------|------------------------------|
|
|   Q   Q   E  E  Q             E   Q      E  +E   E  Q
|-------3---3--3--3---------|---1---1------1--(1)--1--1----|
|-------3---3--3--3---------|---1---1------1--(1)--1--1----|
|-------0---0--0--0---------|---2---2------2--(2)--2--2----|
|-------0---0--0--0---------|---3---3------3--(3)--3--3----|
|-------2---2--2--2---------|---3---3------3--(3)--3--3----|
|-------3---3--3--3---------|---x---x------x--(x)--x--x----|


  G                                   F/C      Em7/C
   S  S  E  E  S  S  E   E  S  S  E    E  E  E  E  +E   E   E  E
|-----------------------------------|-----------------------------|
|-----------------------------------|-----------------------------|
|-14p12----12-14p12-----12-14p12----|-----------------------------|
|-------14----------14-----------14-|-12--------------------------|
|-----------------------------------|----14-12-10-(10)-10--10-----|
|-----------------------------------|-------------------------10--|
|
|  Q        E  E    +E   E  E     E    E  Q     E  +E   Q.
|--3--------3--3----(3)--3--3-----3-|--1--1-----0--(0)--0---------|
|--3--------3--3----(3)--3--3-----3-|--1--1-----3--(3)--3---------|
|--0--------0--0----(0)--0--0-----0-|--2--2-----0--(0)--0---------|
|--0--------0--0----(0)--0--0-----0-|--3--3-----2--(2)--2---------|
|--2--------2--2----(2)--2--2-----2-|--3--3-----3--(3)--3---------|
|--3--------3--3----(3)--3--3-----3-|--x--x-----------------------|


  G                          F/C
   E  E  E  E  E   E  E  E    S  S  E  S  S  E  S   S  E  S  S  E
|--------------------------|-------------------15p=12-------------|
|--------------------------|----------15p12-12--------12-15p12-12-|
|--------------------12-12-|-14p12-12-----------------------------|
|-------------12--14-------|--------------------------------------|
|----10-12s14--------------|--------------------------------------|
|-12-----------------------|--------------------------------------|
|
|  Q     E  E +E   E  E  E    E     Q        E +E      E  Q
|--3-----3--3-(3)--3--3--3-|--1-----1--------1-(1)-----1--1-------|
|--3-----3--3-(3)--3--3--3-|--1-----1--------1-(1)-----1--1-------|
|--0-----0--0-(0)--0--0--0-|--2-----2--------2-(2)-----2--2-------|
|--0-----0--0-(0)--0--0--0-|--3-----3--------3-(3)-----3--3-------|
|--2-----2--2-(2)--2--2--2-|--3-----3--------3-(3)-----3--3-------|
|--3-----3--3-(3)--3--3--3-|--x-----x--------x-(x)-----x--x-------|


  G                                      F/C         Em7/C
   S  S  E  S  S  E  S   S  E  S  S  E    S  S  E  E  E  +E   E   E  E
|-------------------15p=12-------------|-----------------------------------|
|----------15p12-12--------12-15p12-12-|-----------------------------------|
|-14p12-12-----------------------------|-14p12----12-12-(12)-12--12-14b16==|
|--------------------------------------|-------14--------------------------|
|--------------------------------------|-----------------------------------|
|--------------------------------------|-----------------------------------|
|
|  Q        E     E +E      E  E     E    E     Q     E  +E   Q.
|--3--------3-----3-(3)-----3--3-----3-|--1-----1-----0--(0)--0------------|
|--3--------3-----3-(3)-----3--3-----3-|--1-----1-----3--(3)--3------------|
|--0--------0-----0-(0)-----0--0-----0-|--2-----2-----0--(0)--0------------|
|--0--------0-----0-(0)-----0--0-----0-|--3-----3-----2--(2)--2------------|
|--2--------2-----2-(2)-----2--2-----2-|--3-----3-----3--(3)--3------------|
|--3--------3-----3-(3)-----3--3-----3-|--x-----x--------------------------|


        G                F/C
   +Q    Q   Q    +Q      E  E  E  E  +E   E  E  E
|-------15-------------|------------------------------|
|----------------------|------------------------------|
|-(14)------14r==(14)--|-12----12-12-(12)----12-14b16-|
|----------------------|----14------------14----------|
|----------------------|------------------------------|
|----------------------|------------------------------|
|
|   Q    Q   E E   Q      E  Q     E  +E   E  Q
|--------3---3-3---3---|--1--1-----1--(1)--1--1-------|
|--------3---3-3---3---|--1--1-----1--(1)--1--1-------|
|--------0---0-0---0---|--2--2-----2--(2)--2--2-------|
|--------0---0-0---0---|--3--3-----3--(3)--3--3-------|
|--------2---2-2---2---|--3--3-----3--(3)--3--3-------|
|--------3---3-3---3---|--x--x-----x--(x)--x--x-------|


  G                                    F/C      Em7/C
   +E   E  Q        Q        Q          E  E  E  E  +E  E  E E
|------15----





Comments


Popular Molly Hatchet tabs & chords
Mississippi Moon Dog Drum Tabs
Beatin The Odds Intro Tabs
Bounty Hunter Tabs
Dreams I'll Never See Tabs
Dreams Il Never See Tabs
Dreams Ill Never See Intro Tabs
Flirting With Disaster Tabs
Its All Over Now Intro Tabs
Long Time Intro Intro Tabs
Whiskey Man Tabs


Song lyrics



↑ Back to top | Tablatures and chords are parodies/interpretations of the original songs. You may use it for private study, scholarship, research or language learning purposes only
© 2014 AZChords.com Contact us | Privacy policy | DMCA | Add/correct tabs | Request tabs | Top 50 tabs