» » »

Flirtin With Disaster Tabs (ver.1)

Artists:  A B C D E F G H I J K L M N O P Q R S T U V W X Y Z # 

Flirtin With Disaster Tabs (ver.1)

Molly Hatchet
Rating:
5/5 (9 votes)

Tabs too difficult? Try these video lessons and learn fast.
                I just realized that there are no tabs for this awesome solo on the net, so i decided to 
it out. i got it all by ear and i'd say its about 95%-98% correct. any suggestions or 
please be sure to post them.
|-------|
|-------|
|-------|
|-------|
|-------|
|-3b-0~-|

|-----12--------12-----12-12-12-12-12--------12---------12----15b~--|
|-----12-----12--------12-12-12-12-12-----12----15b-15b~---12-------|
|-14b----14b-------14b----------------14b---------------------------|
|-------------------------------------------------------------------|
|-------------------------------------------------------------------|
|-------------------------------------------------------------------|

|-12-15----12~--------------------------------------------------------------|
|-------15-----15-15-15p12----12-12\-12br----12-12-15p12----12--------------|
|--------------------------14-12-12\-12br----12-12-------14----14-12-14-12--|
|-----------------------------------------14--------------------------------|
|---------------------------------------------------------------------------|
|---------------------------------------------------------------------------|

                                                          tr=tremolo pick
|--------------------------------------------------------------------------|
|--------------------------------------------------------------------------|
|----12-----------------12-12~-12\-12-12\-12-14b-14br\---0-2b~-2btr--2-0---|
|-14----14-12-14-(12)---12-12~-12\-12-12\--------------2-----------------2-|
|--------------------14----------------------------------------------------|
|--------------------------------------------------------------------------|

|----------------------------------------12-12-15p12----15p12-----|
|------------------------------------/12-12-12-------12-------12--|
|-0-2-0----------------x-------------/13--------------------------|
|-------2-0-2----------x-2~-(0)-2-2~------------------------------|
|-------------0--------x------------------------------------------|
|---------------3-0/\/-x------------------------------------------|

|-----------------------------------------15p12----16p13-----17p14----18p15---|
|-15p12------15b-15b~-12-15-15brp12-12-12-------12-------13--------14-------15|
|--------14-------------------------------------------------------------------|
|-----------------------------------------------------------------------------|
|-----------------------------------------------------------------------------|
|-----------------------------------------------------------------------------|

|-19p16----22b-22b~\--------------------------------------------------------|
|-------16------------------------------------------------------------------|
|---------------------------------------------------------------------------|
|---------------------------------------------------------12----12-14-12-14-|
|------------------------------10----10-12-10-12-14-12-14----14-------------|
|---------------------12-10-12----12----------------------------------------|

|-----------------12-------12----12-------------------------------15b-15~--|
|--------------12----12-15----12----15b-15b~-12-15b-15b~-12-15-12----------|
|-12----12-14b-------------------------------------------------------------|
|----14--------------------------------------------------------------------|
|--------------------------------------------------------------------------|
|--------------------------------------------------------------------------|


|-15p12----12------------------------------------------------------------|
|-------15----15-12-15-12----12------------------------------------------|
|-------------------------14----14-12-14-12----12----12-----12----12-----|
|-------------------------------------------14----14----14~----14----14~-|
|------------------------------------------------------------------------|
|------------------------------------------------------------------------|

|------------------------------------------------------------------------|
|------------------------------------------------------------------------|
|-12----12---------------------------------------------------------------|
|----14----14p12----12-14~-------------------------------------12----12--|
|----------------14-----------------10----10-12-10-12-14-12-14----14-----|
|--------------------------12-10-12----12--------------------------------|

|-----------------------------------------------------------------------------|
|--------------------------------------------------------------12-------------|
|----------12----12-14p12----16p13----14p13----16p13----13--------14p12h13----|
|-14-12-14----14----------14-------14-------14-------14----16b~------------14~|
|-----------------------------------------------------------------------------|
|-----------------------------------------------------------------------------|

|-------12b-12~-12p9----9----------------------------------------------------|
|--------------------12---12-9-12-9-7-9-7---7--------------------------------|
|----9------------------------------------9---9-7-9p7---9~-9p7---9~-9p7---9~-|
|-12--------------------------------------------------9--------9--------9----|
|----------------------------------------------------------------------------|
|----------------------------------------------------------------------------|

|-----------|
|-----------|
|-9p7---9~--|
|-----9-----|
|-----------|
|-----------|

Harmony:

GTR 1
|------------------------------------------|----------------------------|
|o-15br-12----15br-12----15br-12----12-15-o|-15br-12----15br-12----17b~-|
|----------14---------14---------14--------|---------14---------14------|
|-----------------------------------------o|----------------------------|
|o-----------------------------------------|----------------------------|
|------------------------------------------|----------------------------|

|--------------|
|-17b-17b-17~--|
|--------------|
|--------------|
|--------------|
|--------------|

GTR 2
|------------------------------------------|----------------------------|
|o----------------------------------------o|----------------------------|
|--14br-12----14br-12----14br-12----12-14--|-14br-12----14br-12----16b~-|
|----------14---------14---------14--------|---------14---------14------|
|o----------------------------------------o|----------------------------|
|------------------------------------------|----------------------------|

|-------------|
|-------------|
|-16b-16b-16~-|
|-------------|
|-------------|
|-------------|

GTR 1
|--------------------------------------------------------------|
|-12-15p12----12-----------------------------------------------|
|----------14----14-12-14-12----12-----------------------------|
|----------------------------14----14-12-14-12----12----12-14~-|
|----------------------------------------------14----14--------|
|--------------------------------------------------------------|

repeat starting from harmony part
            
Tabs too difficult? Try these video lessons and learn fast.


comments powered by Disqus
↑ Back to top | Tablatures and chords are parodies/interpretations of the original songs. You may use it for private study, scholarship, research or language learning purposes only