>
 >
Fall Of The Peacemakers

Fall Of The Peacemakers Guitar Tabs

Molly Hatchet - Fall Of The Peacemakers chords, tabs, tablatures, lyrics

Guitar lessons | Add/correct | Request | Top 50 tabs Artists:  A B C D E F G H I J K L M N O P Q R S T U V W X Y Z 0-9

Fall Of The Peacemakers Guitar Tabs – Molly Hatchet

CD, Sheet music, Poster

Do you like Fall Of The Peacemakers? Share with your friends now
Tabs
Molly Hatchet
Fall of the Peacemakers
Standard tuning
I hope you like the tab, its a really good song with some tough leads so you had better 
it alot if  you want to play it up to speed
Medeivalman98
Intro:

Let ring  . . . . . . . . . . . . . . . . . . . . . . . .
        Ami
--------||---------------0-------|------------------0----|
--------||---1---0---1-----------|---1---0---1-------1---|
--------||----2---2---2----------|----2---2---2-------2--|
--------||-----2---2---2---------|-----2---2---2-------2-|
--3-2---||-0----------------3-2--|-0---------------------|
------3-||---------------------3-|-----------------------|

C           G           Ami
-----------------------|---------------0-------|---------------0-------|
---1---3------3--1-----|---1---0---1-----------|---1---0---1-----------|
----0---0------0--0----|----2---2---2----------|----2---2---2----------|
-----2---2---------0---|-----2---2---2---------|-----2---2---2---------|
-3---------------------|-0---------------------|-0---------------------|
-------------3--3------|-----------------0-2-3-|-----------------0-2-3-|

Ami                     C          G            Ami (rhythm)
------------------0----|-----------------------|----------------0-----||
---1---0---1-------1---|---1---3-----3--1------|-1------------1---3-1-||
----2---2-----------2--|----0---0-----0--0-----|-2--------------------||
-----2---2-----------2-|-----2---2--------0----|-2--------------------||
-0---------------------|-3---------------------|-0--------------------||
-----------------------|------------3--3-------|----------------------||

C          G            Ami                     C          G
-----------------------|-----------------0-----|-----------------------|
---1---3-----3--1------|---1---0---1---1---3-1-|---1---3------3---1----|
----0---0-----0--0-----|----2---2--------------|----0---0------0-------|
-----2---2--------0----|-----2---2-------------|-----2---2-------------|
-3---------------------|-0---------------------|-3-----------------2-3-|
------------3--3-------|-----------------------|-------------3--3------|

D                       C          G            Ami
---5---5---3---2---2---|-----------------------|-----------------0-----|
----3---3---3---3---3--|---1---3-----3--1------|---1---0---1---1---3-1-|
-2---------------------|----0---0-----0--0-----|----2---2--------------|
-0---0---0---0---0---0-|-----2---2--------0----|-----2---2-------------|
-----------------------|-3---------------------|-0---------------------|
-----------------------|------------3--3-------|-----------------------|

rhythm . . . . . . . . . . . . . . . . . . . . . . . . . . . . . . . .
G    Dsus2 Csus2  Ami   Dsus2          Ami    Dsus2     Csus2  G
-3------0----3---|-0-------0-----------|-0-------0-----|--3-----3-----||
-3------3----3---|-1-------3-----------|-1-------3-----|--3-----3-----||
-0------2----0---|-2-------2-----------|-2-------2-----|--0-----0-----||
-0------0----2---|-2-------0---0-2-0---|-2-------0-----|--2-----0-----||
-2-----------3---|-0---2-3-----------3-|-0---2-3-------|--3-----2-----||
-3---------------|---------------------|---------------|--------3-----||

1st solo:
Ami        C   G       Ami       G            D/F#        Ami
---5----------|---5-----8-5--5--|-6/-6/-5----------5-----|-------------|
-----8-5------|-----8-5--8----8-|---------8-5-------8-5--|-------------|
-7/------7----|-7/--------------|-------------5-7/-----7-|-------5-5---|
-----------7--|-----------------|------------------------|----5h7-7--7-|
--------------|-----------------|------------------------|-5h7---------|
--------------|-----------------|------------------------|-------------|

Ami C            G          Ami            G              D/F#
----------------|--------------5----------|----0h5-0h7-0h5-6/-6/-5-----|
----------------|---------------8-5-------|-5h8-------------------8-5--|
----------------|---------5--5------7-5-5-|--------------------------5-|
----------------|-----5h7--------------7--|----------------------------|
-------------5--|-5h7---------------------|----------------------------|
-5---7---8------|-------------------------|----------------------------|

Ami                      Verse:
---5------5--------------||---|
----8-8/-8--8-5----------||---|
-7/------------7-7/p5----||---|
---------------------7p5-||-7-| . . .
-------------------------||---|
-------------------------||---|

2nd solo:
       Ami        C              G       Ami
-------||-----------9-------------|-5-3-2---------------------|
-------||------------9------------|-------5-3---3--5----------|
-7/97/||/97/97/9---/97p5--7/9-|-----------5------5/---2-------|
-------||-------------------------|---------------------------|
-------||-------------------------|---------------------------|
-------||-------------------------|---------------------------|

G           D/F#               Ami
-----------------------------|--------------------------------|
-----------------------------|-----------8---------------5x---|
--------------5-----------5x-|-7/97p5-------5-5--------7x-----|
-2p0-------5s7-7--(5)-7-7x---|---------7---7-----7-5-7--------|
-----3s5s-------------------|---------------------------------|
-----------------------------|--------------------------------|

Ami                 C                      G           Ami
--------------------------------------(5)-|-7/8-7-5--------------------|
-8/10--8-5-8/10--8-5-8/10--8-5-8/10--8-5--|---------8-7-5--------------|
------------------------------------------|---------------8-7-5----5-7-|
------------------------------------------|----------------------7-----|
------------------------------------------|----------------------------|
------------------------------------------|----------------------------|

G                D/F#               Ami
---------------------8-------------|-8------------------8----------------|
----------------------8-10---10-10-|---10-8---10---8------10--8---10-8---|
-7/97p5-7---(5x)-7s9--------------|--------9----9---9--------------------|
-----------(7x)--------------------|-------------------------------------|
-----------------------------------|-------------------------------------|
-----------------------------------|-------------------------------------|

C               G                 Ami
10/1210p8-------10/1210p8-------|10-10/12-10-10/12-10-/1210-8---------------|
----------10-10-8----------10-10-8|-----------------------------10-10-10-8--|
----------------------------------|-----------------------------------------|
----------------------------------|-----------------------------------------|
----------------------------------|-----------------------------------------|
----------------------------------|-----------------------------------------|

G         D/F#                 Ami
-----------------5---------5---|-8/10-8-5------------------------------|
---------------5---5--8/10---8-|----------8---8/10-8-5-8---------------|
-9p7p5-7---7/9-----------------|---------------------------7/9-7-5-----|
-------------------------------|-------------------------------------7-|
-------------------------------|---------------------------------------|
-------------------------------|---------------------------------------|

C            G                  Ami
-------------------------------|-----------------------------------------|
-------------------------------|-----------------------------------------|
-7/9-----7/97p5--7---------5x-|-7/97p5------------5----------------------|
-------------------------------|---------7--7-5-7-----7-5--7-------7-5---|
-------------------------------|-----------------------------------------|
-------------------------------|-----------------------------------------|

G             D/F#              Ami                 D
-------------------------------|-----------------------------------------|
-------------------------------|-----------------------------------------|
-------------------5---------5-|------------------5--7--------7/97p5-----|
---------------------7-----7---|-7--------------7------------------------|
-7p5---5-------5-7-------------|-----------------------------------------|
-----8-------------------------|-----------------------------------------|

Ami        D              Ami        D                    Csus2    G
-------------------------|-------------------------|----------------------|
-------------------------|-------------------------|----------------------|
---------5--7----7/97p5-|---------5--7~~~~~~~~~s-|------------------------|
-7-----7-----------------|-7-----7-----------------|----------------------|
-------------------------|-------------------------|----------------------|
-------------------------|-------------------------|----------------------|





Comments


Popular Molly Hatchet tabs & chords
Mississippi Moon Dog Drum Tabs
Beatin The Odds Intro Tabs
Bounty Hunter Tabs
Dreams Il Never See Tabs
Dreams Ill Never See 2 Tabs
Dreams Ill Never See Intro Tabs
Gator Country Tabs
No Stanger In The Darkness Tabs
Respect Me In The Morning Tabs
Whiskey Man Tabs


Song lyrics



↑ Back to top | Tablatures and chords are parodies/interpretations of the original songs. You may use it for private study, scholarship, research or language learning purposes only
© 2014 AZChords.com Contact us | Privacy policy | DMCA | Add/correct tabs | Request tabs | Top 50 tabs