» » »

Dreams I'll Never See Tabs (ver.2)

Artists:  A B C D E F G H I J K L M N O P Q R S T U V W X Y Z # 

Dreams I'll Never See Tabs (ver.2)

Molly Hatchet
Rating:
0/5 (0 votes)

Hard to play? Try these video lessons and learn fast.
                (Intro)
Easy song, just listen to the song to get the beat, i found it simple to get the beat. 
is just regular tuning
                                 INTRO
1|------------------------------|
2|------------------------------|
3|------------------------------|
4|---5-----4----2-----4---------|
5|---5-----5----3-----5---------|
6|------------------------------|
                                 VERSE
1|--------------------------------|
2|--------------------------------|
3|--------------------------------|
4|--5-x-x-5-x-x-x-x-5-x5-5-4-4----|
5|--5-x-x-5-x-x-x-x-5-x5-5-5-5----|
6|--------------------------------|
                                 CHORUS (speed up tab according to music)
1|-------------------------------------------------------------------------|
2|------------------------------8--8-x-x-x-x-8---x--8---x--8---x--8-8-8----|
3|------------------------------7--7-x-x-x-x-7---x--7---x--7---x--7-7-7----|
4|-5-------5--5--3--------------6--6-x-x-x-x-6---x--6---x--6---x--6-6-6----|
5|-5-------5--5--3--------------7--7-x-x-x-x-7---x--7---x--7---x--7-7-7----|
6|-3-------3--0--1--------0--0--0--0-x-x-x-x-0---x--0---x--0---x--0-0-0----|

1|------------------------------8--8-x-x-x-x-6---x--6---x--0---x--0-0-0----|
2|------------------------------8--8-x-x-x-x-6---x--6---x--0---x--0-0-0----|
3|--5------5--5--3--------------6--6-x-x-x-x-6---x--6---x--0---x--0-0-0----|
4|--5------5--5--3--------------7--7-x-x-x-x-7---x--7---x--0---x--0-0-0----|
5|--3------3--0--1--------0--0--0--0-x-x-x-x-0---x--0---x--0---x--0-0-0----|
6|-------------------------------------------------------------------------|
my cuts may be incorrect as i memorize all my songs, just listen to the song for the 
its pretty simple to learn them.
            
Hard to play? Try these video lessons and learn fast. | Correct




comments powered by Disqus
↑ Back to top | Tablatures and chords are parodies/interpretations of the original songs. You may use it for private study, scholarship, research or language learning purposes only