» » »

Dreams I'll Never See Bass tabs (ver.1)

Artists:  A B C D E F G H I J K L M N O P Q R S T U V W X Y Z # 

Dreams I'll Never See Bass tabs (ver.1)

Molly Hatchet
Rating:
0/5 (0 votes)

Hard to play? Try these video lessons and learn fast.
                -------------------------------------------------------------------------------
			     Dreams I'll Never See  - Molly Hatchet
-------------------------------------------------------------------------------


Tuning: Standard

Intro
G|----------7+---------------------------------------|
D|------7+------7+-----------------------------------|
A|--5+-----------------------------------------------|
E|---------------------------------------------------|

Verse                              every other verse                                 
G|--------------------------------|-------------------|
D|--------------------------------|-------------------|
A|--5--5---5-5--5---5--5--5-5--5--|----3~-------------|
E|--------------------------------|-------------------|

after half way through verse
G|-----------------7-----7-----------------------------------------|
D|------------5h7-----7--------------------------------------------|
A|--5--5-----------------------------------------------------------|
E|-----------------------------------------------------------------|


Chorus
G|----------------------------------------------------------------------|
D|----------------------------------------------------------------------|
A|----------------------------------------------------------------------|
E|---3-3-3-3-3-3--1-1-1-1-1-1--0-0-0-0-0-0-0----------------------------|

G|----------------------------------------------------------------------|
D|----------------------------------------------------------------------|
A|---3-3-3-3-3-3--1-1-1-1-1-1--0-0-0-0-0-0-0----------------------------|
E|----------------------------------------------------------------------|

Bridge/solo
play verse then

G|----------------------------------------------------------------------------|
D|----------------------------------------------------------------------------|
A|--5-5-5-5-5-5-5-5-5--3~-----------------------------------------------------|
E|----------------------------------------------------------------------------|

G|----------------------------------------------------------------------------|
D|----------------------------------------------------------------------------|
A|-3-2-3-2-3-2-3-2-3-2-3-2-3-2-3-2---5-5-5-5-5-5-5-5-5-5-5-5------------------|
E|----------------------------------------------------------------------------|

G|----------------------------------------------------------------------------|
D|----------------------------------------------------------------------------|
A|-3-2-3-2-3-2-3-2-3-2-3-2-3-2-3-2---0-0-0-0-0-0-0-0-0-0-0-0------------------|
E|----------------------------------------------------------------------------|

| /  slide up
| \  slide down
| h  hammer-on
| p  pull-off
| ~  vibrato
| +  harmonic
| x  Mute note
===============================================================================
            
Hard to play? Try these video lessons and learn fast. | Correct




comments powered by Disqus
↑ Back to top | Tablatures and chords are parodies/interpretations of the original songs. You may use it for private study, scholarship, research or language learning purposes only