» » »

Moffatts, Saying I Love You Chords (ver.1)

Artists:  A B C D E F G H I J K L M N O P Q R S T U V W X Y Z # 

Saying I Love You Chords (ver.1)

Moffatts Tabs
 Rating:
4/5 (4 votes)
Saying I Love You lessons Tabs too difficult? Try these video lessons and learn fast
1
                The Moffatts
Chapter I: A New Beginning
1998 EMI Records

Key: G

Tuning: Standard EADGBe

Chords used:
G -    320033
D -    xx0232
Eb -   x68886
Em -   022000
C -    x32010
G/B -  x2x003
Am -   x02210


Intro: G--D-Eb-Em--C--

Saxophone:
      G         D      Eb      Em      C
e|-7---7----|--------|----|----------|-10-|
B|--------8-|-10-8-7-|-8--|-----7--8-|----|
G|----------|--------|----|-9--------|----|
D|----------|--------|----|----------|----|
A|----------|--------|----|----------|----|
E|----------|--------|----|----------|----|


Chorus 1:
G             D
Saying I love you
         Em               C
It's the hardest thing to do
    G         D
And if I ever do
     Em              C--
Girl I'll always be true


Verse 1:
  G              D
I may not be the best
        Em           C
Looking guy you ever knew
    G              D
But I can show you love
          Em         C
That will always be true
    G                    D
And when your skies turn gray
    Em                 C
My love will guide the way
    G                     D
And if these words that I hold
      Em      C
Could only be told


(Repeat Chorus)


Verse 2:
Em              C
  And when your tears
             G    D Eb
Fall to the ground
Em                C
  I will pick you up
                  G    D
When your feeling down oh


Guitar Solo: G-D-Em-C- x2

Guitar 2: Solo
        G              D             Em             C
e|-7--8-7-------|--------------|------------|------------------|
B|---------10-8-|-7--8---------|------------|------------------|
G|--------------|------9--7--7-|-9--9--7----|--------8---------|
D|--------------|--------------|----------9-|-10--10---10-9----|
A|--------------|--------------|------------|---------------10-|
E|--------------|--------------|------------|------------------|

          G                  D                       Em                  C
e|------------------|--------------------|-10-10-10-10-10-8-7-8-7-|-8-7----8-7---|
B|------------------|-12-10-----------10-|------------------------|-----8------8-|
G|------------------|-------12----12-----|------------------------|--------------|
D|----------9-10-12-|----------12--------|------------------------|--------------|
A|-10-10-12---------|--------------------|------------------------|--------------|
E|------------------|--------------------|------------------------|--------------|


(Repeat Chorus 1)


Verse 3:
Em              C
  And when your tears
             G    D Eb
Fall to the ground
Em                C
  I will pick you up
                  G   D(hold)
When your feeling down


Chorus 2:
G             D
Saying I love you
         Em               C
It's the hardest thing to do
    G         D
And if I ever do
     Em
Girl I'll always be true
G             D
Saying I love you
         Em               C
It's the hardest thing to do
    G         D
And if I ever do
     Em              C-- C-G/B-Am(hold)
Girl I'll always be true


Outro: G-D-Em-C-G(hold)
            
Submit corrections

comments powered by Disqus
↑ Back to top | Moffatts Chords for Saying I Love You. Lyrics for acoustic guitar and electric guitar. 1 Tablatures and chords are parodies/interpretations of the original songs. You may use it for private study, scholarship, research or language learning purposes only