» » »

Moe, Zed Nought Z Tabs (ver.1)

Artists:  A B C D E F G H I J K L M N O P Q R S T U V W X Y Z # 

Zed Nought Z Tabs (ver.1)

Moe Tabs
 Rating:
4/5 (4 votes)
Zed Nought Z lessons Tabs too difficult? Try these video lessons and learn fast
                -------------------------------------------------------------------------------
-------------------------------------------------------------------------------

Tuning: Standard E A D G B E

e|--------------------------------------------------------------|
B|--------------------------------------------------------------|
G|--------------------------------------------------------------|
D|--2-4---2---2-4---2----2-4-----2-4--2-----2-4---2--2-4---6----|
A|------4---------4---------4--------4----------4--------4------|
E|--------------------------------------------------------------|

e|------------------------------------------------------|
B|------------------------------------------------------|
G|------------------------------------------------------|
D|------------------------------------------------------|
A|--------2-4--6b--------2------------------------------|
E|--0-2-4------------2-4--------------------------------|
Throughout the song Pinch harmonics are used on the bent G# (6th fret D string)

e|------------------------------------------------------|
B|------------------------------------------------------|
G|----9------9-11-9-------------------------------------|
D|------9-11--------------------------------------------|
A|------------------------------------------------------|
E|------------------------------------------------------|

e|------------------------------------------------------|
B|------------------------------------------------------|
G|---9/11\9---------------------------------------------|
D|---9/11\9---------------------------------------------|
A|------------------------------------------------------|
E|------------------------------------------------------|

All the major parts of the song are above, just in different orders. It shouldnt be too 
to figure out.

The two parts above this sound great if you jump around octaves and jam a bit. Its a 
simple song, anything you can do to add to it makes it sound great.

This is one of my favorite moe. songs to jam to, since its so repetitive,and doesnt have 
huge lead.It gives you tons of room to mess around and see what you can do.

Soloing around just these patterns sounds great, but add your own outside stuff too.


| /  slide up
| \  slide down
| h  hammer-on
| p  pull-off
| ~  vibrato
| +  harmonic
| x  Mute note
===============================================================================
            
Submit corrections

comments powered by Disqus
↑ Back to top | Moe Tabs for Zed Nought Z. Lyrics for acoustic guitar and electric guitar. Tablatures and chords are parodies/interpretations of the original songs. You may use it for private study, scholarship, research or language learning purposes only