» » »

Where Does The Time Go Tabs (ver.2)

Artists:  A B C D E F G H I J K L M N O P Q R S T U V W X Y Z # 

Where Does The Time Go Tabs (ver.2)

Moe
Rating:
5/5 (1 vote)

Tabs too difficult? Try these video lessons and learn fast.
                Drop D tunning

E|--3----3----3----3-------------------------------------------------------|
B|-3-3--3-3--3-3---2------0-2-3s5s3--3-5-7-3-------0-2-3s5s3---3-3p2p0-----|
G|-----------------3-----0----------2-------------0-----------2--------2p0-|
D|1----------------0----0----------0-----8-4-----0-----------0-------------|
A|-----1-------------2-4----------------------2-4--------------------------|
D|----------3----3----0------------------------0---------------------------|

E|-----------------------------------------------------------*7------------|
B|-------------------------0-2-3s5s3--3---7-5-3------0-2-3s5-*7-15-7-3-----|
G|------------------------0----------2--------0-----0--------*7------------|
D|4p2p0------------------0----------0-----8-6-4----0------------16-8-4-2s5-|
A|------4p2p0-0h2h4---2-4-----------------------2-4--------------------2s5-|
D|------------------0--0-------------------------0---------------------2s5-|

E|3------------------------------------------------------------------------|
B|2--------------------3--3--------3--3---------3--3---------3--3----------|
G|3----0----------------2--0--------2------------2--0---------2------------|
D|0-2s4-4s2p0-4p2-4-0-0--0----0-0-0--0--0--0-0-0--0----0-0-0---0--0--0-0-0-|
A|-----------2---2-----------0------------0-----------0-------------0------|
D|--------------------------5----------3-5-----------5-----------3-5-------|

E|------------------------------------------7-5-----3---3-------------------|
B|3--3--------3--3---------3--3--------3--3-8-----------3-----3-3p2p0-------|
G|-2--0--------2------------2--0--------2-----7-----5----------------2p0----|
D|--0----0-0-0--0--0--0-0-0--0----0-0-0--0---0-0-0-0-0-0-0-0------------4p0-|
A|------0------------0-----------0------------------------------------------|
D|-----5----------3-5-----------5-------------------------------------------|

E|-3-2------7-5-----5---3-------------------3-2-|
B|-3-3------8-----------3---3-3p2p0---------3-3-|
G|------------7-----3---------------2p0---------|
D|0-0-0-0-0--0-0-0-0-0-0-0-0-----------4p0-0----|
A|----------------------------------------------|
D|----------------------------------------------|


Verse:
                    D
The times that are best
                    G*
When moments that pass
             D
One after another
                    D
You notice your thoughts
                      G
As they grow in the evening time
                     D
Just like clingin’ vines
                    D
You hold them all close
                    G
So they can't run away
                  D
And leave you wonderin'
                     D
The times that are best
                    G
When moments they pass
             D
One after another

Chorus:
  A
Here we are (here we are)
  G
Home at last (home at last)
  A                      G
Where did it start and where will it finish?
  A
Home again (home again)
  G
Jiggedy jig

Where does the time go?
E|--------------|| ------------------------------ ||
B|---1----0h1h2-||:---3--3--------3--3------3--3-:||
G|--0----0------|| ----2--0--------2---------2--0 ||
D|-2----0-------|| 0-0--0----0-0-0--0---0--0--0-- || repeat once then go
A|3----4--------||:---------0-------------0------:|| back to the verse
D|--------------|| --------5-----------3-5------- ||

         E|3
         B|3
         G|4
 G* -->  D|5
         A|0
         D|0


Lyrics:

The times that are best
When moments that pass
One after another
You notice your thoughts
As they grow in the evening time
Just like clingin’ vines
You hold them all close
So they can't run away
And leave you wonderin'
The times that are best
When moments they pass
One after another

Here we are (here we are)
Home at last (home at last)
Where did it start and where will it finish?
Home again (home again)
Jiggedy jig
Where does the time go?

Livin' in space
Is all fine and good
If you're an astronaut
But life is a dream
That calculus could never predict
I lift up my feet
Everytime I cross those railroad tracks
I'm not superstitious
It just reminds me of you

Here we are (here we are)
Home at last (home at last)
Where did it start and where will it finish?
Home again (Home again)
Lickety split
Where does the time go?

There was a time
That passed over us
Like an airplane's shadow
You could chase it I guess
It'll never be quite the same
I lift up my feet
Everytime I cross the railroad tracks
I'm not superstitious
It just reminds me of you

Here we are (here we are)
Home at last (home at last)
Where did it start and where will it finish?
Home again (home again)
Jiggedy jig
Where does the time go?

(JAM)

Here we are (here we are)
Home at last (home at last)
Where did it start and where will it finish?
Home again (home again)
Jiggedy jig

Here we are (here we are)
Home at last (home at last)
Round on the ends and high in the middle
Home again (home again)
Lickety split
Where does the time go?
Where does the time go?
            
Tabs too difficult? Try these video lessons and learn fast.


comments powered by Disqus
↑ Back to top | Tablatures and chords are parodies/interpretations of the original songs. You may use it for private study, scholarship, research or language learning purposes only