» » »

Moe, Where Does The Time Go Tabs (ver.1)

Artists:  A B C D E F G H I J K L M N O P Q R S T U V W X Y Z # 

Where Does The Time Go Tabs (ver.1)

Moe Tabs
Rating:
0/5 (0 votes)
Where Does The Time Go lessons Tabs too difficult? Try these video lessons and learn fast
                Where Does the Time Go – Moe.
Tuning is drop D

E|--3----3----3----------(2)------------------------|
B|-3-3--3-3--3-3---------(3)--------------0-2-3s5s3-|
G|-----------------------(2)-------------0----------|
D|1----------------------(0)------------2-----------|
A|-----1-----------------(0)---------2-4------------|
D|----------3---(3)------(0)----------0-------------|

E|--------------------------------------------------|
B|----------3-5/7-3-------0-2-3/5/3---3-3p2p0-------|
G|---------2-------------0-----------2--------2p0---|
D|--------0---6/8-4-----2-----------0---------------|
A|-------------------2-4----------------------------|
D|------0-------------0------------0----------------|

E|--------------------------------------------------|
B|--------------------------------0-2-3/5/3---------|
G|-------------------------------0--------------2---|
D|4p2p0-------------------------2--------------0----|
A|------4p2p0----0-----------2-4--------------------|
D|------------4/5---(0)-------0--------------0------|


E|-------------------------*7--------------(2)------|
B|----5/7-5-3------0-2-3/5-*7-15/7/3-------(3)------|
G|----------0-----0--------*7--------------(2)------|
D|----6/8-6-4----2------------16/8/4-2/5---(0)------|
A|------------2-4--------------------2/5---(0)------|
D|-------------0---------------------2/5---(0)------|



E|--------------------------------------------------|
B|---------------------3--3------------3--3---------|
G|-----0----------------2---------------2-----------|
D|--2/4-4\2p0-2p0-4-0-0--0-------0---0---0----------|
A|-----------2---0---------------------------0------|
D|----------------------------0-5--0--------4--5p0--|




E|--------------------------------------------------|
B|------3--3------------3--3------------------------|
G|-------2---------------2--------------------------|
D|-0--0---0-------0---0---0-------------0-----------|
A|-------------------------------0---0--------------|
D|--0---------0-5---0----------4---5-------0--------|









E|--------------------------------------------------|
B|------3--3------------3--3------------------------|
G|-------2---------------2--------------------------|
D|----0---0-------0---0---0-------------0-----------|
A|---------------0---------------0------------------|
D|------------0-5---0----------4---5p0-----0--------|



E|--------------------------------------------------|
B|------3--3------------3--3---------12----10-------|
G|-------2---------------2-----------12----11-------|
D|----0---0-------0---0---0-------------------------|
A|---------------0----------------------------------|
D|------------0-5---0-------------------------------|



E|--------------------------------------------------|
B|--------5p3p0-(3)---3-3p2p0-----------------------|
G|----------------------------2p0-------------------|
D|---(0)--------------------------2/4---0-----------|
A|--------------------------------------------------|
D|--------------------------------------------------|



E|------3-----2-------------------------------------|
B|------3----3-----------------------12----10-------|
G|----------2------------------------12----11-------|
D|----0----0----------------------------------------|
A|--------------------------------------------------|
D|--------------------------------------------------|


E|--------------------------------------------------|
B|--------5p3p0-(3)---3-3p2p0-----------------------|
G|----------------------------2p0-------------------|
D|---(0)--------------------------2/4---0-----------|
A|--------------------------------------------------|
D|--------------------------------------------------|


E|------3-----(2)-----------------------------------|
B|------3----(3)------------------------------------|
G|----------(2)-------------------------------------|
D|----0----(0)--------------------------------------|
A|--------------------------------------------------|
D|--------------------------------------------------|

the chorus, then it goes from A to G. I did this all by ear so the rest is pretty easy to 
figure out. The transition from the chorus back into the verse looks like this:


E|---------------------------|
B|------1---0h2h3------3---3-|
G|-----0---0------------2----|
D|----2---0--------0-0---0---|
A|---3---2-------------------|
D|---------------------------| . . .
            
Submit corrections

comments powered by Disqus
↑ Back to top | Moe Tabs for Where Does The Time Go. Lyrics for acoustic guitar and electric guitar. Tablatures and chords are parodies/interpretations of the original songs. You may use it for private study, scholarship, research or language learning purposes only