» » »

Timmy Tucker Bass tabs (ver.1)

Artists:  A B C D E F G H I J K L M N O P Q R S T U V W X Y Z # 

Timmy Tucker Bass tabs (ver.1)

Moe
Rating:
0/5 (0 votes)

Hard to play? Try these video lessons and learn fast.
                ---------------------------------------------------------------------------
---------------------------------------------------------------------------

Tuning: EADG

100% by ear so there may be a few errors. All of the riffs (especially Verse
A and the BRIDGE) have many improvised variations that change throughout the
song, but the majority of them adhere to this structure. 

INTRO (0:00-0:15)
G|-----------4---2------------4---2---2-|
D|--------------------------------------|
A|-------2-2---0----------2-2---0---0---| x2
E|-0--3-------------0--3----------------|

VERSE A (0:16-0:30)
G|-----------------------------4-------0h2---2-|
D|-----------------5---5-----------------------|
A|-------5h7---------------2-2---0-x-0-----x---| x4
E|-0-x-x-----0-3-3---x---0---------------------|

VERSE B (0:31-0:46)
G|-------------4----2--------------4---2---2-|
D|-------------------------------------------|
A|---------2-2---0-------------2-2---0---0---| x4
E|-0--0-3--------------0--0-3----------------|

0:47-1:47 REPEAT VERSE A & B

PRECHORUS (1:48-1:58)
G|-------------------------|
D|-------------------------|
A|-------------------------|
E|-6-5--6-5--6-5--6-8-6-5v-|

CHORUS (1:59-2:14)
G|-----------------------4-----------------------|
D|--------0-2--------0-2----------0-2--------0-2-|
A|--2-0-2------2-0-2--------2-0-2------2-0-2-----|
E|-----------------------------------------------|

2:15-3:47 REPEAT VERSE A & B
3:48-3:58 REPEAT PRECHORUS
3:59-4:14 REPEAT CHORUS

INTERLUDE (4:15-4:29)
G|-------------|
D|-------------|
A|-----5h7-----|
E|-0-0-----0-3-|

4:30-5:31 REPEAT VERSE B DURING GUITAR SOLO

BRIDGE (5:32-6:18)
G|-----------------------------------4-------------|
D|-------------------------------------7-5-4-------|
A|---------0-2-2--2-0----------0-2-----------7-5---|
E|-0--0-3-------------0--0-3---------------------7-|

6:19-6:35 REPEAT VERSE A & B
6:36-6:46 REPEAT PRECHORUS
6:47-END REPEAT CHORUS


| .  palm mute
| “  tremolo pick
| *  pinch harmonic
| ~  let note ring
| /  slide up
| \  slide down
| h  hammer-on
| p  pull-off
| v  vibrato
| +  natural harmonic
| x  mute note
=============================================================
            
Hard to play? Try these video lessons and learn fast. | Correct




comments powered by Disqus
↑ Back to top | Tablatures and chords are parodies/interpretations of the original songs. You may use it for private study, scholarship, research or language learning purposes only