» » »

Moe, Tgorm Tabs (ver.1)

Artists:  A B C D E F G H I J K L M N O P Q R S T U V W X Y Z # 

Tgorm Tabs (ver.1)

Moe Tabs
 Rating:
4/5 (4 votes)
Tgorm lessons Tabs too difficult? Try these video lessons and learn fast
                I was messing around and figured out the opening riff of TGORM...working on the rest.
If anyone has tabs for Moe. you should submit them cuz I know I'm not the only one 
looking for them.

Intro
|---------------------------------------------------------------------
|---------------------------------------------------------------------
|-------------7-7---5-5-5-----------------------7-7---5-5-5-----------
|-3-3---5-5---7-7---5-5-5---5-------3-3---5-5---7-7---5-5-5---5------- 2X
|-3-3---5-5---5-5---3-3-3---5-------3-3---5-3---5-5---3-3-3---5-------
|-1-1---3-3-----------------3-------1-1---3-3-----------------3-------


Verse
|----------             |--------
|----------             |--------
|----------             |-------5
|-3-3---5-5 4X   Then   |-5--3--3 2X
|-3-3---5-5             |-5--3--3
|-1-1---3-3             |-3--1---

The Chorus and Solo I'm not sure about, if anyone can figure it out submit it
            
Submit corrections

comments powered by Disqus
↑ Back to top | Moe Tabs for Tgorm. Lyrics for acoustic guitar and electric guitar. Tablatures and chords are parodies/interpretations of the original songs. You may use it for private study, scholarship, research or language learning purposes only