» » »

Moe, Spine Of A Dog Tabs (ver.1)

Artists:  A B C D E F G H I J K L M N O P Q R S T U V W X Y Z # 

Spine Of A Dog Tabs (ver.1)

Moe Tabs
 Rating:
4/5 (4 votes)
Spine Of A Dog lessons Tabs too difficult? Try these video lessons and learn fast
                The Intro has two guitars. On the No Doy version, (in my opinion, the better one)there
for about 25 or 30 seconds and the two guitars come at the same time, while on the Fatboy
the first guitar comes in right away and plays its part two times and then the second 
comes and does it's thing. This is all played very loosely, so what I have tabbed,
isnt exactly how moe. does it. Anyways here it is. The two guitar lines are not supposed 
be lined up.

guitar 1
|-2---x-x---2----2--2------------------------|
|-3---x-x---3----3--3------------------------|
|-2---x-x---2h4--4--2---0---0--------0--0--0-|
|-0---x-x---0-----------4-------2----4--2--2-|
|--------------------------------------------|
|--------------------------------------------|

guitar 2
|-10--10-10--10-10-----x-10\------5-5-5---3-3-3-|
|-10--10-10--10-10-----x-10\------7-7-7---5-5-5-|
|-11--11-11--11-11------------------------------|
|-12--12-12--12-12------------------------------|
|-----------------------------------------------|
|-----------------------------------------------|

for the verses there is only one guitar. There is no set strumming pattern for that
D chord so improvise on that chord during the singing and at the end of each vocal line play
ending part. If you know the song well you know what I mean.

|------------------------------5-5-5---3-3-3-|
|-7----------------------------7-7-7---5-5-5-|
|-7------------------------------------------|
|-7------------------------------------------|
|--------------------------------------------|
|--------------------------------------------|

The next part goes something like this.

|------------------------------------|
|-------------------------3----------|
|-------4--------------0-------0-----|
|-----2-----2------------------------|
|-0------------0---3--------------3--|
|------------------------------------|

|------------------------------------|
|-------------------------3----------|
|-------4--------------0-------0-----|
|-----2-----2------------------------|
|-0------------0---3--------------3--|
|------------------------------------|

|-------------------------3------3-3-|
|-------------------------3------3-3-|
|-------4--------------0--0------0-0-|
|-----2-----2------------------------|
|-0------------0---3-----------------|
|------------------------------------|

|------------------------------------|
|-------------------------3----------|
|-------4--------------0-------0-----|
|-----2-----2------------------------|
|-0------------0---3--------------3--|
|------------------------------------|

I don't know the next part but after that part, just repeat everything above. The solo
in D major and i think it uses mostly pentatonic scales like this:

|-----------------------7-10-|     |----------------------------10-12-|
|------------------7-10------|     |----------------------10-12-------|
|--------------7-9-----------|     |-----------------9-11-------------|
|----------7-9---------------|     |------------9-12------------------|
|------7-9-------------------|     |-------9-12-----------------------|
|-7-10-----------------------| and |-10-12----------------------------|
            
Submit corrections

comments powered by Disqus
↑ Back to top | Moe Tabs for Spine Of A Dog. Lyrics for acoustic guitar and electric guitar. Tablatures and chords are parodies/interpretations of the original songs. You may use it for private study, scholarship, research or language learning purposes only