» » »

Moe, Seat Of My Pants Tabs (ver.1)

Artists:  A B C D E F G H I J K L M N O P Q R S T U V W X Y Z # 

Seat Of My Pants Tabs (ver.1)

Moe Tabs
Rating:
0/5 (0 votes)
Seat Of My Pants lessons Tabs too difficult? Try these video lessons and learn fast
                There's not many good moe. tabs out there on the internet, especially for Seat Of My
so i decided to try figuring it out and heres what I got. I'm not sure if it's 100%, but it
pretty good to me. I kind of tried to show timing, but you'll have to listen to the song 
exact timing. And of course this is moe. So dont feel like you have to play all of
exactly how I have

Heavy Intro Part:
e|---------------------------------|
B|---------------------------------|
G|---------3-4-5---------3---3-5---|
D|-3-4-5---3-4-5---------3---3-5---|
A|-3-4-5---1-2-3---------1---1-3---|
E|-1-2-3-----------1-2-3-----------|
That is played four times

Soft Intro Part:
   F        G          F         G
|----------------------13--x-13-----------|
|--10~--x-x-12~--x-x---13--x-13--12~------|
|--10~--x-x-12~--x-x---14--x-14--12~------|
|--10~--x-x-12~--x-x-------------12~------|
|-----------------------------------------|
|-----------------------------------------|
That is played three times and then ends on the following:
   F        G          F
|----------------------13\------|
|--10~--x-x-12~--x-x---13\------|
|--10~--x-x-12~--x-x---14\------|
|--10~--x-x-12~--x-x------------|
|-------------------------------|
|-------------------------------|

Intro Riff:
|-12---12p10---------------------------------14p10----|
|------------12p10~---------7h10p7-----10h12-------12-|
|------------------------/9--------/12----------------|
|-----------------------------------------------------|
|-----------------------------------------------------|
|-----------------------------------------------------|
This is played four times

Verse:
     A     D     G     D
|----5-----5-----3-----5------|
|----5-----7-----3-----7------|
|----6-----7-----4-----7------|
|-----------------------------|
|-----------------------------|
|-----------------------------|
This is played four times but on the fourth time don't play the last D chord.

"They usually meet!!" Part:
        A           D           G           D
|-x-x-x-5---5-x-x-x-5---5-x-x-x-3---3-x-x-x-5---5-|
|-x-x-x-5---5-x-x-x-7---7-x-x-x-3---3-x-x-x-7---7-|
|-x-x-x-6---6-x-x-x-7---7-x-x-x-4---4-x-x-x-7---7-|
|-x-x-x-7---7-x-x-x-7---7-x-x-x-5---5-x-x-x-7---7-|
|-x-x-x-7---7-x-x-x-5---5-x-x-x-5---5-x-x-x-5---5-|
|-x-x-x-5---5-x-x-x-------x-x-x-3---3-x-x-x-3-----|
This is played three times and then ends on the following:
        A           D     G
|-x-x-x-5---5-x-x-x-5---x-3-----------------------|
|-x-x-x-5---5-x-x-x-7---x-3-----------------------|
|-x-x-x-6---6-x-x-x-7---x-4-----------------------|
|-x-x-x-7---7-x-x-x-7---x-5-----------------------|
|-x-x-x-7---7-x-x-x-5---x-5-----------------------|
|-x-x-x-5---5-x-x-x-------3-----------------------|
This is also played during the chorus and underneath the intro riff.

Then repeat the verse and the usually meet part (they say "calcium friend" this time)

"Milk for one" part:
     A     D    G
|----5-----2----3-3----x-3------|
|----5-----3----3-3----x-3------|
|----6-----2----4-4----x-4------|
|-------------------------------|
|-------------------------------|
|-------------------------------|
This is played four times.

The chorus is played next then you kind of repeat everything above, you should be able
figure out what is played and where.

Then theres a middle part which im going to skip for now, but right before the solo this
played four times with palm muting:
|-------------------------------------|
|-------------------------------------|
|-------------------------------------|
|-------------------------------------|
|---------5---5---------------5-------|
|-1-1-1-1-3---3-------1-1-1-1-3-------|

Then underneath the solo this is played over and over again.
  G      Bb  G         G       Bb   G
|--------------------------------------------|
|--------------------------------------------|
|--------------------------------------------|
|--------------------------------------------|
|-5-------8---5\--------5-------8---5\-------|
|-3-------6---3\--------3-------6---3\-------|
            

comments powered by Disqus
↑ Back to top | Moe Tabs for Seat Of My Pants. Lyrics for acoustic guitar and electric guitar. Tablatures and chords are parodies/interpretations of the original songs. You may use it for private study, scholarship, research or language learning purposes only