» » »

Moe, Plane Crash Tabs (ver.1)

Artists:  A B C D E F G H I J K L M N O P Q R S T U V W X Y Z # 

Plane Crash Tabs (ver.1)

Moe Tabs
Rating:
5/5 (6 votes)
Plane Crash lessons Tabs too difficult? Try these video lessons and learn fast
                There's not many quality moe. tabs on the internet right now, so I thought I'd satisfy 
moe. fans that I know are out there.

Jam in Am pentatonic.

Intro:
-----------4-----5-------------------|
---3-----3-----6---/5--3--5-h-6-5----|
--2---/4-----5-----/5--4--5-h-7-5-0--|   Repeat
-------------------------------------|
-------------------------------------|
-------------------------------------|

Verse: Each chord is played for 2 beats

  Dm       C       G      F
--1----------------3------1-|
--3--------1-------3------1-|
--2--------0-------0------2-|   Repeat
--0--------2-------0------3-|
-----------3-------2------3-|
-------------------3------1-|

Bridge: Dm C G F Dm C G

Chorus:

  D  D  C9 C9 G  G  G  D
--2--2--------3--3--3--2--|
--3--3--3--3--3--3--3--3--|
--2--2--0--0--0--0--0--2--|  Repeat
--0--0--2--2--0--0--0--0--|
--------3--3--2--2--2-----|
--------------3--3--3-----|

This is the "too f**king high" part:

  D - 5 times  C9 - 3 times  G  D/F#  G  D
--2--------------------------3--------3--2--|
--3------------3-------------3--3-----3--3--|
--2------------0-------------0--2-----0--2--|  Repeat
--0------------2-------------0--0-----0--0--|
---------------3-------------2--0-----2-----|
-----------------------------3--2-----3-----|

Bridge to solo:

  D/A  E7B  F    C    G    F    C
----------------------3------------|
--3----3----1----1----3----1----1--|
--2----1----2----0----0----2----0--|
--0----0----3----2----0----3----2--|
--0----2----3----3----2----3----3--|
----------------------3------------|

Solo at 4:53 :

----------------------------------------------------------------------------------------|
------------------------------------10b-r-p8-11b--15b-15--------------------------------|
--9b--9--9b--9b-9-7---7-10b-7-9-7-----------------------9b-9b-r-9---7-9b-7-9-7-7-9-9b---|
--------------------9---------------------------------------------9---------------------|
----------------------------------------------------------------------------------------|
----------------------------------------------------------------------------------------|


Strings:

---------7-5------------------------4-7-5--|
--13--9------5-8-6----5--------------------|
-------------------5-7--4-7-5--------------|
--10--6-----------------------7-5-7--------|
-------------------------------------------|
-------------------------------------------|
-------------------------------------------|

--8-4-7-5-------------------------4-7------|
----------5-8-6-----5----------------------|
----------------5-7---4-7-5----------------|
----------------------------7-5-7----------|
-------------------------------------------|
-------------------------------------------|

The next solo is in the A minor pentatonic; otherwise, that's it.
            
Submit corrections

comments powered by Disqus
↑ Back to top | Moe Tabs for Plane Crash. Lyrics for acoustic guitar and electric guitar. Tablatures and chords are parodies/interpretations of the original songs. You may use it for private study, scholarship, research or language learning purposes only