» » »

Moe, Opium Tabs (ver.1)

Artists:  A B C D E F G H I J K L M N O P Q R S T U V W X Y Z # 

Opium Tabs (ver.1)

Moe Tabs
Rating:
0/5 (0 votes)
Opium lessons Tabs too difficult? Try these video lessons and learn fast
                (Intro)
okay, so no one else posted anything close this song, so I will make an attempt...


E---------------------------|
B---------------------------|
G---------------------------|
D----------0h3-p0-----------|
A-----0h3----------2--------|
E----------------------3----|

That's basically the main part of the song, bass plays the same.

Chorus:

E-----------     E------------|
B-----------     B------------|
G-----------     G----------1-|
D----5--4--3     D----5--3--2-|
A----5--4--3     A----5--3--2-|
E----3--2--1     E----3--1--0-|

"Opium, won't you smile on brain?"

figure out the chords inbetween the chorus, it's pretty easy.

have fun.
            

comments powered by Disqus
↑ Back to top | Moe Tabs for Opium. Lyrics for acoustic guitar and electric guitar. Tablatures and chords are parodies/interpretations of the original songs. You may use it for private study, scholarship, research or language learning purposes only