» » »

Moe, Okay Tabs (ver.1)

Artists:  A B C D E F G H I J K L M N O P Q R S T U V W X Y Z # 

Okay Tabs (ver.1)

Moe Tabs
 Rating:
4/5 (4 votes)
Okay lessons Tabs too difficult? Try these video lessons and learn fast
                --------------------------------------1-----1----------------
-----15------------10---------------3-1---3-1----------------
-14b----14r-12--9b----9r-7--5-3-----3-2---3-2----------------
----------------------------5-3-5---3-3---3-3----------------
----------------------------3-1-5---1-3---1-3----------------
--------------------------------3-----1-----1----------------
G1 + G2 Intro (2x)


--------------------------------------------------------------
--------------------------------------------------------------
-------------------------5-5----------------------------------
-----0------0-------3-3--5-5--5-5-----------------------------
---2------2---------3-3--3-3--5-5-----------------------------
-3------3------2p0--1-1-------3-3-----------------------------
G1 + G2 Verse (1st Half)


------------------------3-3-----3-3-----3-3-------------------
------------------------3-3-----3-3-----3-3-------------------
----------------------------5-5-------------------------------
-----0------0-------3-3-----5-5-----5-5-----------------------
---2------2---------3-3-----3-3-----5-5-----------------------
-3------3------2p0--1-1-------------3-3-----------------------
G1 Verse (2nd Half) (G2 plays the same thing as the 1st Half)


-1-1---------3-3---3-3----------------------------------------
-1-1---5-5---3-3---3-3----------------------------------------
-2-2---5-5---4-4---4-4----------------------------------------
-3-3---5-5---5-5---5-5----------------------------------------
-3-3---3-3---5-5---5-5----------------------------------------
-1-1---------3-3---3-3----------------------------------------
Chorus


-----3--------------------------------------------------------
-------3-3h5p3------------------------------------------------
-2b--------------0h2p0----------------------------------------
--------------------------------------------------------------
--------------------------------------------------------------
--------------------------------------------------------------
G1 Plays this right after the “smoking joints” part



----------------------------1----1----------------------------
--------------------------3-1--3-1----------------------------
--------------------------3-2--3-2----------------------------
-----0------0-------------3-3--3-3----------------------------
---2------0----3p1--------1-3--1-3----------------------------
-3------2-----------3-3-----1----1----------------------------
Bridge

Solo: Improvise over the bridge part.  After the solo, play the intro and then the chorus


-------------------1------------------------------------------
-------------------1------------------------------------------
-------------------2------------------------------------------
-----0-----0-------3------------------------------------------
---2-----2---------3------------------------------------------
-3-----3------2h0--1------------------------------------------

As always, listen to the CD for clarification, and feel free to leave comments.
            
Submit corrections

comments powered by Disqus
↑ Back to top | Moe Tabs for Okay. Lyrics for acoustic guitar and electric guitar. Tablatures and chords are parodies/interpretations of the original songs. You may use it for private study, scholarship, research or language learning purposes only