» » »

Not Coming Down Tabs (ver.1)

Artists:  A B C D E F G H I J K L M N O P Q R S T U V W X Y Z # 

Not Coming Down Tabs (ver.1)

Moe
Rating:
0/5 (0 votes)

Hard to play? Try these video lessons and learn fast.
                k i saw that there was no gud tabs so i got my guitar teacher to do it so its pretty 
sounds best with drop d.u can figure out timin and other stuff its pretty easy.

intro/main riff
guitar 1
-----------------------------------------|
-----------------------------------------|
--7----5---4-----2-----0----0h2----------|
0---0----0----0-----0-----0--------------|
-----------------------------------------|
-----------------------------------------|
guitar 2 pretty much a d chord
----2------------------------------------|
----3------------------------------------|
----2------------------------------------|
----0------------------------------------|
0---x------------------------------------|
0---x------------------------------------|

verse g f -its hard to hear but its there
-----------------------------------------|
-----------------------------------------|
-----------------------------------------|
-----------------------------------------|
-5---------5--3----0---------------------|
-5---------5--3----0---------------------|
or cud b played like this
-----------------------------------------|
-----------------------------------------|
-----------------------------------------|
-----------------------------------------|
-5---------7--10---0---------------------|
-5---------7--10---0---------------------|

chorus
-----------------------------chord-D-----|
-----------------------------------------|
---------------------------------5-------|
-3-jus random picking or rhythm -5-------|
-3-------------------------------5-------|
-3---------------------------------------|

Bridge after bass solo thing
----------------------------D--D---------|
--10-listen to song----12----------------|
--10-for picking-------12----------------|
--10-------------------12----------------|
--------------------------0--------------|
--------------------------0--------------|
On third time instead of going open E/A
strings and the 2 d chords u kinda just
jam with this for a while
-----------------------------------------|
------15---------------------------------|
------15---------------------------------|
------15---------------------------------|
-----------------------------------------|
-----------------------------------------|
then end with the open E/A with the two
D chords.

At the end of the song there is a small solo
like thing that goes like this.
-----------------------------------------|
-----------------------------------------|
----2--2--4--0--4------------------------|
----0--0--0--0--0------------------------|
--0--------------------------------------|
--0--------------------------------------|
and thats pretty much it so i gave u all the parts
but theres some assembly required so gud luck and if
            
Hard to play? Try these video lessons and learn fast. | Correct




comments powered by Disqus
↑ Back to top | Tablatures and chords are parodies/interpretations of the original songs. You may use it for private study, scholarship, research or language learning purposes only