>
 >
 >
Meat

Meat Guitar Tabs

Moe - Meat chords, tabs, tablatures, lyrics

Guitar lessons | Add/correct | Request | Top 50 tabs Artists:  A B C D E F G H I J K L M N O P Q R S T U V W X Y Z 0-9

Meat Guitar Tabs – Moe

CD, Sheet music, Poster

Do you like Meat? Share with your friends now
Bass TabsBass Tabs v2Tabs
||--------------------------------------||

||--------------------------------------||

||*--9---9---9---9-7-9---9---9-7-------*||

||*--9---9---9---9-7-9---9---9-7-------*||

||---7---7---7---7-5-7---7---7-5--------||

||---7---7---7---7-5-7---7---7-5--------||



Al's opening riff - play 4 times:

(note that he uses this identical riff during the verse of Brent Black)

||--------------12------------------||

||---9h10p9-----12-------------7----||

||*---------9--------6h7p6-----7---*||

||*------------------------9-------*||

||----------------------------------||

||----------------------------------||




		section [A1] - play 4 times



Al's part:

||---------19----17----------------19----15---------||

||------17----17----19----17----17----17----19------||

||*--16----------------19----16--------------------*||

||*------------------------------------------------*||

||--------------------------------------------------||

||--------------------------------------------------||



Chuck's part:

||--------------------------------------------------||

||---------17----------------------17-------15------||

||*-----16----16-17-16-14-16----16----16-17--------*||

||*--14----------------------14--------------------*||

||--------------------------------------------------||

||--------------------------------------------------||





		section [A2] - play 4 times



(note they go into double-time here)

	

Al's part:

||---------19----16-------15------------------------|

||------17----------19----------19----17-15----17---|

||*--16---------------------------------------------|

||*-------------------------------------------------|

||--------------------------------------------------|

||--------------------------------------------------|



|----------19----16-------15------------||

|-------17----------19----------19------||

|----16--------------------------------*||

|--------------------------------------*||

|---------------------------------------||

|---------------------------------------||





Chuck's part:

||--------------------------------------------------------|

||---------17-17-13---------------------------------------|

||*-----16----------16----14----16----17-16h17p16----14---|

||*--14---------------------------------------------------|

||--------------------------------------------------------|

||--------------------------------------------------------|



|---------------------------------------||

|----------17-17-13-------13----15------||

|-------16----------16-----------------*||

|----14--------------------------------*||

|---------------------------------------||

|---------------------------------------||




		section [B1] - play 2 times





Al:

||---------------------------------------------------||

||---12--11------15--14------17--16------20--21------||

||*--12--11------15--14------17--16------20--21-----*||

||*--12--11------15--14------17--16------20--21-----*||

||---------------------------------------------------||

||---------------------------------------------------||



 While Chuck plays:

(Chuck plays this twice for each time Al plays the above phrase)

||---------------------------------------------------||

||---------------------------------------------------||

||*-----9-8---------------------9-8-----------------*||

||*----------9--8--7--5--------------9--8-----------*||

||--7-------------------7p5-7------------------------||

||---------------------------------------------------||





		section [B2] - play 2 times



Chuck plays same as in [B1]

Al joins Chuck's riff, transposed up a 5th:

||--------------------------------------------------------||

||--------------------------------------------------------||

||*------16-15----------------------------16-15----------*||

||*-------------16--15--14--12-------------------16--15--*||

||-14--------------------------14p12-14-------------------||

||--------------------------------------------------------||





		section [B3] - play 2 times



Chuck plays same as in [B1]

Al plays this:



||--------------------------------------------------------||

||--------------------------------------------------------||

||*---------------------14-----16-14---------------------*||

||*------14-13--17--16------17------------14-13--17--16--*||

||-14--------------------------------14-------------------||

||--------------------------------------------------------||




			section [C]



The chords for this section are Em9, F#m9, Am9, Bm9



The first two times through this progression Al solos while Chuck 

arpeggiates the chords like this:



||-----------2--------------4--------------7--------------9--------||

||--------3--------------5--------------8-------------10-----------||

||*----4--------------6--------------9-------------11-------------*||

||*-2--------------4--------------7--------------9----------------*||

||-----------------------------------------------------------------||

||-----------------------------------------------------------------||



The third and fourth time through the progression Chuck solos while Al

arpeggiates the chords kinda like this:



||-----------------------------------------------------------------||

||------3--------------5--------------8---------------10-----------||

||*---------------------------------------------------------------*||

||*-2-------5------4-------7------7-------10------9--------12-----*||

||-----------------------------------------------------------------||

||-----------------------------------------------------------------||



Of course, both of them play these very loosely...


			section [D]



Al:             play 3 times               4th time

||---------------------------------------||---------|

||---------------------------------------||---------|

||*--------16-15------------------------*||---------|

||*---------------16--15--14--12--------*||---------|

||---14--------------------------14-12---||-14------|

||---------------------------------------||---------|



Chuck (these are whole notes - one for each time Al plays the above repeat):



|-----0-----------0------------0-------------0------|

|-----5-----------3------------2-------------0------|

|---------------------------------------------------|

|---------------------------------------------------|

|---------------------------------------------------|

|---------------------------------------------------|



Meat!




			section [E1] - play 2 times



Al and Chuck unison:

||------------------------------------------------------||

||------------------------------------------------------||

||*----------------------------------------2--1--------*||

||*----2-------0------0--2-----2-------0---------2-----*||

||--------0h2------2--------------0h2-------------------||

||--0-----------------------0---------------------------||





			section [E2] - play 2 times



Chuck plays above riff

Al moves riff up a 5th:



||------------------------------------------------------||

||------------------------------------------------------||

||*----------------------------------------9--8--------*||

||*----9-------7------7--9-----9-------7---------9-----*||

||--------7h9------9--------------7h9-------------------||

||--7-----------------------7---------------------------||





			section [E3] 



Chuck:

|------------------------------------------------------------------------|

|------------------------------------------------------------------------|

|--------------------------------2-1-------------------------------------|

|----0------0---0-2-----0------0-----2-----0------0---0-2-----0------0---|

|0h2----0h2---2-----0h2----0h2---------0h2----0h2---2-----0h2----0h2-----|

|------------------------------------------------------------------------|



Al:

|------------------------------------------------------------------------|

|------------------------------------------------------------------------|

|--------------------------------9-8-------------------------------------|

|----7------7---7-9-----7------7-----9-----7------7---7-9-----7------7\--|

|7h9----7h9---9-----7h9----7h9---------7h9----7h9---9-----7h9----7h9-----|

|------------------------------------------------------------------------|








Now repeat the above sections [B1] through [E2], then jam!





Comments


Popular Moe tabs & chords
Meat 1 Bass Tabs
Timmy Tucker Bass Tabs
Waiting For The Punchline Chords
32 Things 1 Tabs
Bring It Back Home Tabs
Crab Eyes Tabs
It Tabs
Mexico Tabs
Okayalright Intro Tabs
The Road Tabs


Song lyrics



↑ Back to top | Tablatures and chords are parodies/interpretations of the original songs. You may use it for private study, scholarship, research or language learning purposes only
© 2014 AZChords.com Contact us | Privacy policy | DMCA | Add/correct tabs | Request tabs | Top 50 tabs