» » »

Moe, Gone Bass tabs (ver.1)

Artists:  A B C D E F G H I J K L M N O P Q R S T U V W X Y Z # 

Gone Bass tabs (ver.1)

Moe Tabs
 Rating:
4/5 (4 votes)
Gone lessons Tabs too difficult? Try these video lessons and learn fast
1
                moe. - GONE

Intro (x2)
G -------------------------------------------------------------|
D -------------------------------------------------------------|
A --3~-----------1~--------------------------------------------|
E ----------------------------1~-------------------------------|

Verse
G ----------------------------------------------------------|
D ----------------------------------------------------------|
A ----------------1*1--------------------1*1----------------|
E-1*1-----3*3------------1*1-----3*3-----------1~-----------|

Chorus
G ----------------------------------------------------------|
D ----------------------------------------------------------|
A -3-----------1--------------------------------------------|
E ---------------------------1------------------------------|

Bridge
G ---------------------------------------------------------------------|
D ---------------------------------------------------------------------|
A --------------------------------3--------1---------------3-----------|
E -3--------2----------1---------------------------1-------------------|
            
Submit corrections

comments powered by Disqus
↑ Back to top | Moe Bass for Gone. Lyrics for acoustic guitar and electric guitar. 1 Tablatures and chords are parodies/interpretations of the original songs. You may use it for private study, scholarship, research or language learning purposes only