» » »

Moe, Faker Tabs (ver.1)

Artists:  A B C D E F G H I J K L M N O P Q R S T U V W X Y Z # 

Faker Tabs (ver.1)

Moe Tabs
 Rating:
4/5 (4 votes)
Faker lessons Tabs too difficult? Try these video lessons and learn fast
1
                "The Faker" 
Transciption by Skriblez

Intro          C                              G/B                       Amlick
e---------------------------------------3--------------------0---------------------------
B--------------1--------------------3-------------------1---------------------------------
G-----------------0-------------0-------------------2-------------------0h2p0------------
D--------2------------------0-------------------2--------------0h2h3-------3-2-0---
A----3-----------------2--------------------0---------------------------------------------
E--------------------------------------------------------------------------------------





Verse follows intro feel

C                  G/B                Am                lick
Wastin' away                       Sittin' around
C                          G/B            Amlick
Time on my hands                 Leaves on the ground
C                                G/B        Am                    lick
Been showed the way             Hinted around
C                            G/B        Am                           lick
Never been certain               Never been found

Chorus: 
C             G/B     Am
Cause I am a faker
C             G/B     Am
Pretending along
C             G/B     F
Losin' site of my maker
              C                 G/B          Am
I will die before I finish this song(Solo)
C              G/B         Am                    lick (4x)

C                                G/B        Am                    lick
Been showed the way               Hinted around
C                           G/B                    Am                    lick
Never been certain                      Never been found
C                G/B                       Am                    lick
Fakin' away                            Pretendin' around
C                            G/B                        Amlick
Rain's in the bucket       And there's dust on the ground

(Chorus)(Interlude) 4x             Solo after 2x until next verse
                       D                 C                        CG
e-------------2---------------------------------------------------------3-------
B-----------------3------------------------------------1---------------3-------
G------------2-----------0h2----------   0h2-------0---------------0-------
D-------00--------------------2---------------2------2---------------0-------
A---0h3-------------------------3---------------3---3---------------2-------
E-----------------------------------------------------------------------3-------

C                G/B                       Am                    lick(4x)

C                G/B                       Am                    lick
Slippin' away                            Sittin      around
C                G/B                       Am                           lick
Words in my brain                Words make the sound
C                G/B                       Am                    lick
Wasting away                             Sitting around
C                      G/B                   Am                    lick
 Rain's in the bucket              Leaves on the ground
C                G/B                       Am                    lick
Been shown the way               Been down around
C                G/B                             Am                    lick
Never been certain                      Never been found
C                G/B                       Am                    lick
Fakin' away                               Pretendin' around
C                G/B                       Am                    lick
Rain's in the bucket            And there's dust on the ground

(Chorus)(interlude) 8x(Jam)D     F       C    G

D       C       Griff
e-------------10---8----------------------------------------------------------
B--------10-------------10--------8---10--12---10------------------------
G---11-----------------------------------------------------11----------------
D------------------------------------------------------------------------------
A------------------------------------------------------------------------------
E-------------------------------------------------------------------------------

e-------------10---8-----------------------------------------------------------
B--------10-------------10--------8---10--12---10-------------------------
G---11-------------------------------------------------------------------------
D-------------------------------------------------------------------------------
A-------------------------------------------------------------------------------
E--------------------------------------------------------------------------------

D                 C                    G                D
Time is a song just waiting for a singer
Song is a fire that           burns in the night
Burnin' so hot that your flesh becomes thinner
If you can't hold the flame then you tend to lose sight
            
Submit corrections

comments powered by Disqus
↑ Back to top | Moe Tabs for Faker. Lyrics for acoustic guitar and electric guitar. 1 Tablatures and chords are parodies/interpretations of the original songs. You may use it for private study, scholarship, research or language learning purposes only