» » »

Moe, Down Boy Tabs (ver.1)

Artists:  A B C D E F G H I J K L M N O P Q R S T U V W X Y Z # 

Down Boy Tabs (ver.1)

Moe Tabs
 Rating:
4/5 (4 votes)
Down Boy lessons Tabs too difficult? Try these video lessons and learn fast
1
                Album" The Conch

okay, first off, I know this tab is not going to be 100% accurate, so shut the hell up
you critical jerk offs. My version is the basic structure of the song, I am providing the
signature for the song, and if you can't work with that and figure it out from there, 
probably shouldn't be playing guitar in the first place.


Key Signature: B minor


              B                   A
E----------------------------------------|
B----------------------------------------|
G-------------4-------------------2------|
D-------------4-------------------2------|
A-------------2-------------------0------|
E----------------------------------------|
  I never was sad     I never got down

        E                            D
E-----------------------------------------|
B-----------------------------------------|
G-------9----------------------------7----|
D-------9----------------------------7----|
A-------7----------------------------5----|
E-----------------------------------------|
  I was relieved      Cause I was so tired

            G                        B
E-----------------------------------------|
B-----------------------------------------|
G------------------------------------4----|
D-----------5------------------------4----|
A-----------5------------------------2----|
E-----------3-----------------------------|
  Six years time      It was six too long

E-----------------------------------------|
B-----------------------------------------|
G-------------4-------------------4-------|
D-------------4-------------------4-------|
A-------------2-------------------2-------|
E-----------------------------------------|
  Now you are gone    Now you are gone


Verse: if this part doesn't look right rhythmically,
just play in sync with Rob's vocals
E-----------------------------------------|
B-----------------------------------------|
G-----------------------------------------|
D-----------------------------------------|
A--5----2----0--h---2p0------------2------|
E------------------------------0-0--------|  play a whole bunch of times
   Hey  kid, you're a liar


Solo: Just mess around with this in a B scale, it will sound good
E----------------------------------------------------------|
B--------7-------------------------------------------------|
G---6^-----6----4--6~--------4-----------------------------|
D-----------------------4/6------6---4----2h4p2------------|
A-----------------------------------------------4p2p0---0--|
E----------------------------------------------------------|


Learn your B minor scale here:
(Descending)&get2=Get&t=0&choice=1

that's what chuck shreds on this song, its actually quite easy.
Rate this tab well!
            
Submit corrections

comments powered by Disqus
↑ Back to top | Moe Tabs for Down Boy. Lyrics for acoustic guitar and electric guitar. 1 Tablatures and chords are parodies/interpretations of the original songs. You may use it for private study, scholarship, research or language learning purposes only