» » »

Moe, Cathedral Bass tabs (ver.1)

Artists:  A B C D E F G H I J K L M N O P Q R S T U V W X Y Z # 

Cathedral Bass tabs (ver.1)

Moe Tabs
 Rating:
4/5 (4 votes)
Cathedral lessons Tabs too difficult? Try these video lessons and learn fast
1
                ----------------------------------------------------------------------------
----------------------------------------------------------------------------

as close as possible

Tuning:EADGBE standard

(repeat 12x)
G|-------------------------------------------------------------------------|
D|-------------------------------------------------------------------------|
A|-----2-2-3-----2-2-3-3---------------------------------------------------|
E|-3-3-------------------1-1-3-3-------------------------------------------|

G|-------------------------------------------------------------------------|
D|-------------------------------------------------------------------------|
A|---2-3----2-3---------2-3------------------------------------------------|
E|-3------3------3--3-------1-3--------------------------------------------|

(repeat 4x)
G|-------------------------------------------------------------------------|
D|-------------------------------------------------------------------------|
A|-----2-2-3-----2-2-3-3---------------------------------------------------|
E|-3-3-------------------1-1-3-3-------------------------------------------|

G|-------------------------------------------------------------------------|
D|-------------------------------------------------------------------------|
A|---2-3----2-3---------2-3------------------------------------------------|
E|-3------3------3--3-------1-3--------------------------------------------|

(repeat 2x)
G|-------------------------------------------------------------------------|
D|-------------------------------------------------------------------------|
A|--55-55----55----55------------------------------------------------------|
E|--------66----55----66-33------------------------------------------------|

(repeat 2x)
G|-------------------------------------------------------------------------|
D|-------------------------------------------------------------------------|
A|--55555555--------55--------55-------------------------------------------|
E|-----------666666----555555----666-333-----------------------------------|

G|-------------------------------------------------------------------------|
D|-------------------------------------------------------------------------|
A|---2-3----2-3---------2-3------------------------------------------------|
E|-3------3------3--3-------1-3--------------------------------------------|

G|-------------------------------------------------------------------------|
D|-------------------------------------------------------------------------|
A|---2-3----2-3---------2-3------------------------------------------------|
E|-3------3------3--3-------3----------------------------------------------|


| /  slide up
| \  slide down
| h  hammer-on
| p  pull-off
| ~  vibrato
| +  harmonic
| x  Mute note
============================================================================
            
Submit corrections

comments powered by Disqus
↑ Back to top | Moe Bass for Cathedral. Lyrics for acoustic guitar and electric guitar. 1 Tablatures and chords are parodies/interpretations of the original songs. You may use it for private study, scholarship, research or language learning purposes only