» » »

Buster Bass tabs (ver.1)

Artists:  A B C D E F G H I J K L M N O P Q R S T U V W X Y Z # 

Buster Bass tabs (ver.1)

Moe
Rating:
0/5 (0 votes)

Hard to play? Try these video lessons and learn fast.
                -------------------------------------------------------------------------------
			     Buster – moe.
-------------------------------------------------------------------------------


Tuning: Standard

Intro and verses
G|---------------------------------------------------------------------------|
D|-----4--7------------------------------------------------------------------|
A|--5-----------4--7-----2--5-----4--7---------------------------------------|
E|-----------5--------3--------5---------------------------------------------|
                                                 

Chorus        3 times
G|-------------------|---------|---------------------------------------------|
D|*-----------------*|---------|---------------------------------------------|
A|*-5---------------*|--5------|---------------------------------------------|
E|-----1--3--5--7-8--|-----1---|---------------------------------------------|


The time signature switches to 6/8 here.
G|-------------|---------------|-------------------|-------------------------|
D|-------------|---------------|-------------------|-------------------------|
A|-5-4-5-7-5-7-|-8-7-8-10-8-10-|-12-10-12-13-12-13-|-15------12-p10-h12--13--|
E|-------------|---------------|-------------------|-------------------------|
                   
G|-------------------------5-5----5-5--|--5-4-------------|------------------|
D|-7-5-4-4---------7-5-4-4-----4-------|------3-2---------|------------------|
A|-------------------------------------|----------4-3-0---|------------------|
E|-------------------------------------|----------------3-|------------------|

                           4 times
G|--------3---------5----5-5---5-5--|--------------------|--------5----------|
D|*-----5---5---3/4----4-----4-----*|--------4-----------|-6-p5--------------|
A|*---4-------5--------------------*|------3---------3-6-|------3----3-------|
E|--2-------------------------------|-2-h5------2-h5-----|-------------------|


G|---------------------------------------------------------------------------|
D|-8-7-8--7-5-7--5-3-5--3-5-3--2-3-2-----------------------------------------|
A|------------------------------------6-5-3--5-3------------------------/10\-|
E|-----------------------------------------------6--4-1-2-----2-----2--------|

                                                                      2 times
G|--------3---------5----5-5---5-5--|-------3---------5----5-5----5-5--------|
D|*-----5---5---3/4----4-----4------|-----5---5---3/4----4------4-----------*|
A|*---4-------5---------------------|---4-------5---------------------------*|
E|--2-------------------------------|-2--------------------------------------|

G|-------4----------6--------|---------5----------7--------------------------|
D|-----5---6-5--3-5---4------|-----6-8---6----------5------------------------|
A|-3-6------------------6-5--|---6---------6--5-8-----7-6--------------------|
E|---------------------------|-----------------------------------------------|

G|-------6----------8-5------|------8-7-6--------6-5-------------------------|
D|-----7---7-6----------6----|-9-11-------8--6-8-----7-----------------------|
A|-6-8----------6-8-------7--|-------------------------8---------------------|
E|---------------------------|-----------------------------------------------|

G|-------8----------10-7-----|----------9----------------8-------------------|
D|-6-7-9---9-7--8-9------8---|------------10----------11---9-----------------|
A|-------------------------9-|-------10------11--9-12--------10--------------|
E|---------------------------|--9-12-----------------------------------------|

This part loses a note each time it repeats.  No one plays straight through
it so you’ll have feel the entire part. And to throw you off even more the 
bass doesn’t hit the third note.  


G|---------10-------------12----------|---------10-------------12------------|
D|-------r----11-------------10-------|-------r----11-------------10---------|
A|----11---------12-10-12-------10----|----11---------12-10-12-------10------|
E|-10------------------------------11-|-10-----------------------------------|

G|---------10-------------12-------|---------10-------------12---------------|
D|-------r----11-------------10----|-------r----11---------------------------|
A|----11---------12-10-12----------|----11---------12-10-12------------------|
E|-10------------------------------|-10--------------------------------------|

G|---------10----------------|---------10-------------|---------10-----------|
D|-------r----11-------------|-------r----11----------|-------r----11--------|
A|----11---------12-10-12----|----11---------12-10----|----11---------12-----|
E|-10------------------------|-10---------------------|-10-------------------|
                                                     
G|---------10-------|---------10-|----------|-------|------------|-----------|
D|-------r----11----|-------r----|-------12-|-------|------------|-----------|
A|----11------------|----11------|----11----|----11-|--5-5-5\----|-3-3-3\----|
E|-10---------------|-10---------|-10-------|-10----|------------|-----------|

4/4
G|----------|-----|-----------------------|------------|---------------------|
D|----------|-----|-----------------------|---7------7-|---5------5----------|
A|-5-5-5\---|-3---|-5---|-3---|-5---|-3---|-5---5-55---|-3---3-33------------|
E|----------|-----|-----------------------|------------|---------------------|

After 10 minutes of soloing this is the final piece.

G|---------|---------|---------|--------|------------------------------------|
D|---------|---------|---------|--------|------------------------------------|
A|-5-3-5-6-|-5-3-6-5-|-5-3-5-6-|-5-3----|--5---------------------------------|
E|---------|---------|---------|--------|------------------------------------|


The end!
            
Hard to play? Try these video lessons and learn fast. | Correct




comments powered by Disqus
↑ Back to top | Tablatures and chords are parodies/interpretations of the original songs. You may use it for private study, scholarship, research or language learning purposes only