» » »

Moe, Blue Jeans Pizza Tabs (ver.1)

Artists:  A B C D E F G H I J K L M N O P Q R S T U V W X Y Z # 

Blue Jeans Pizza Tabs (ver.1)

Moe Tabs
 Rating:
3.4/5 (5 votes)
Blue Jeans Pizza lessons Tabs too difficult? Try these video lessons and learn fast
                -------------------------------------------------------------------------------
Blue Jeans Pizza – moe.
-------------------------------------------------------------------------------

Tuning: Standard

Here’s a pretty accurate tab of the great Blue Jeans Pizza by moe. 
To get the feel for the guitar repeats and the beat just listen to the song. 
This tab provides the chords to the song and the solo is note for note. Enjoy! 


Intro:

Bass intro:
e|---------------------------------------------------------------------------|
B|---------------------------------------------------------------------------|
G|---------------------------------------------------------------------------|
D|---------------------------------------------------------------------------| 
A|---------------------------------------------------------------------------|
E|-9-9/12\7-7--9-9/12\7-7/9-9--9-9/12\7-7/9-9/12-12~-------------------------|

Guitar intro:
e|----------------------10----12----------------------------------------------|
B|------10--------10-------12----10-12----------------------------------------|
G|---------12--------12----------------7-9---7-----------------------------4-5|
D|--7/9-------7/9--------------------------9----------------------5---5-7-----|
A|---------------------------------------------7\5-7h8-7h8--------------------|
E|----------------------------------------------------------7-8-7---3---------|


Verse Chords: Repeat (F, F, C, G, G, C, F)
e|--1----1----3----3----3----3----1------------------------------------------|
B|--1----1----1----5----3----3----5------------------------------------------|
D|--2----2----5----4----4----5----2------------------------------------------|
G|--3----3----5----5----5----5----3------------------------------------------|
A|--3----3----3----5----5----3----3------------------------------------------|
E|--1----1----3----3----3----3----3------------------------------------------|


Chorus Chords:(Bb, C, Am, G, Bb, C, Am, G, Bb, C, Am, G, F)

e|--1-----3-----5-----3-----1----3-----5----3----1----3----5----3----1-------|
B|--3-----5-----5-----3-----3----5-----5----3----3----5----5----3----1-------|
D|--3-----5-----5-----4-----3----5-----5----4----3----5----5----4----2-------|
G|--3-----5-----7-----5-----3----5-----7----5----3----5----7----5----3-------|
A|--1-----3-----7-----5-----1----3-----7----5----1----3----7----5----3-------|
E|--1-----3-----5-----3-----1----3-----5----3----1----3----5----3----1-------|


Solo from The Conch:

e|----------------------10----12---------------------------------------------|
B|------10--------10-------12----10------------------------------------------|
G|---------12--------12-------------12-7-7-9---7-----------------------------|
D|--7/9-------7/9----------------------------9-----------------------5-------|
A|------------------------------------------------7\5-7h8-7h8----------------|
E|-------------------------------------------------------------7-8-7---3-3-5-|


e|---------------------------------11/12-10/12-8-10p8-10p7-10p8p7-10-7-8-----|
B|-----------------------8/10-8/10---------------------------------------10--|
G|--------------6/7-5/7------------------------------------------------------|
D|-----4/5-3/5---------------------------------------------------------------|
A|-2-3-----------------------------------------------------------------------|
E|---------------------------------------------------------------------------|

e|--10------------------7----12-10-13-12-12p10-12p10-----10-13---------------|
B|-----8-6----------------10--------------------------13---------------------|
G|---------7-7-7-7-7-7-------------------------------------------------------|
D|---------------------------------------------------------------------------|
A|---------------------------------------------------------------------------|
E|---------------------------------------------------------------------------|

Fast Riff Part:

e|-(13p12p10-10-10)-(13p12p10-10-10)-(13p12p10-10-10)-(13p12p10-10-10)-------|
B|---------------------------------------------------------------------------|
G|---------------------------------------------------------------------------|
D|---------------------------------------------------------------------------|
A|---------------------------------------------------------------------------|
E|---------------------------------------------------------------------------|



e|-(13p12p10-10-10)-(13p12p10-10-10)-10-17-17-17b-17p15-17p15-------15-------|
B|------------------------------------------------------------17-15-----17p15|
G|---------------------------------------------------------------------------|
D|---------------------------------------------------------------------------|
A|---------------------------------------------------------------------------|
E|---------------------------------------------------------------------------|



e|-----------------------15-17-13-15-17-12-13-15-10-12--13-8-10-12-7-8-10----|
B|----17p15-------15---------------------------------------------------------|
G|-17-------17-16----16------------------------------------------------------|
D|---------------------------------------------------------------------------|
A|---------------------------------------------------------------------------|
E|---------------------------------------------------------------------------|



e|-7-8p7-10p7---------------------------------(3-let-ring)-------------------|
B|------------8-8-6\5-------------------------(3-let-ring)-------------------|
G|--------------------7-5----------------------------------------------------|
D|-------------------------6/7-5---------------------------------------------|
A|-------------------------------6/7-----------------------------------------|
E|-----------------------------------8-8—7\3---------------------------------|




e|-------------------7-----------------------12-10-------------7-------------|
B|---------------------10--------------------------7-7-7-7-7-7---10----------|
D|-7-7-7-7-7-7-7-7---------7-7-7-7-7-7-7-7-7---------------------------------|
G|---------------------------------------------------------------------------|
A|---------------------------------------------------------------------------|
E|---------------------------------------------------------------------------|


e|------------------12-10-13p12-10----10-12p10-------10----------------------|
B|7-7-7-7-7-7-7-7-7----------------13----------13-12----10/12-10-------------|
G|---------------------------------------------------------------12-10-9-10-9|
D|---------------------------------------------------------------------------|
A|---------------------------------------------------------------------------|
E|---------------------------------------------------------------------------|


e|---------------------------------------------------------------------------|
B|---------------------------------------------------------------------------|
G|---------------------------------------------------------------------------|
D|-10/12-10-9-7-5------------------------------------------------------------|
A|---------------------------------------------------------------------------|
E|---------------------------------------------------------------------------|




| /  slide up
| \  slide down
| h  hammer-on
| p  pull-off
| ~  vibrato
| +  harmonic
| x  Mute note
==============================================================================
            
Submit corrections

comments powered by Disqus
↑ Back to top | Moe Tabs for Blue Jeans Pizza. Lyrics for acoustic guitar and electric guitar. Tablatures and chords are parodies/interpretations of the original songs. You may use it for private study, scholarship, research or language learning purposes only