» » »

Youre The Good Things Tabs (ver.2)

Artists:  A B C D E F G H I J K L M N O P Q R S T U V W X Y Z # 

Youre The Good Things Tabs (ver.2)

Modest Mouse
Rating:
0/5 (0 votes)

Hard to play? Try these video lessons and learn fast.
                

Tuning: EADgbe


| /  slide up
| \  slide down
| h  hammer-on
| p  pull-off
| ~  vibrato
| +  harmonic
| x  Mute note





e|-------------------------------------|
B|-------------------------------------|
G|---------------------------9--9-9----|
D|---------------------------0--0-0----|
A|---9---6--4--9-9--6--4-----7--7-7----|
E|-------------------------------------|


e|-------------------|
B|---6--9--6--4------|
G|---0--0--0--0------|
D|---4--7--4--2------|
A|-------------------|
E|-------------------|


e|-------------------------------------|
B|-------------------------------------|
G|---------------------------9--9-9----|
D|---------------------------0--0-0----|
A|---9---6--4--9-9--6--4-----7--7-7----|
E|-------------------------------------|




Song ending, pretty short song


e|--------------------------------------|
B|--------------------------------------|
G|-----------------------11---9-9-9-9---|
D|--13-13-11-11-13-11-11---13-----------|
A|--------------------------------------|
E|--------------------------------------|


e|-----------------------------------|
B|-----------------------------------|
G|-----------------------------------|
D|-------------------------9-9-9-9---|
A|--13-13-11-11-9--------------------|
E|----------------9-9-9--7-----------|



e|-----------------------------------------|
B|-----------------------------------------|
G|-----------------------------------------|
D|-----------------------------------------|
A|--13-13-13-13-11-11-11-11---------9------|
E|--------------------------9-9-9-9---11---|
            
Hard to play? Try these video lessons and learn fast. | Correct




comments powered by Disqus
↑ Back to top | Tablatures and chords are parodies/interpretations of the original songs. You may use it for private study, scholarship, research or language learning purposes only