>
 >
Whenever You Breathe Out I Breathe In Positivenegative

Whenever You Breathe Out I Breathe In Positivenegative Guitar Tabs

Modest Mouse - Whenever You Breathe Out I Breathe In Positivenegative chords, tabs, tablatures, lyrics

Guitar lessons | Add/correct | Request | Top 50 tabs Artists:  A B C D E F G H I J K L M N O P Q R S T U V W X Y Z 0-9

Whenever You Breathe Out I Breathe In Positivenegative Guitar Tabs – Modest Mouse

CD, Sheet music, Poster

Do you like Whenever You Breathe Out I Breathe In Positivenegative? Share with your friends now
Tabs
Modest Mouse - Whenever You Breathe Out, I Breathe In (Positive Negative)


This tab should be exactly the same as the album version, I believe that I've accounted
for every little variation throughout the song. Unfortunately I don't have a tremolo so
I couldn't tab out the bending harmonics parts. I've tried to tab each section the way
Isaac plays it based on live footage.

I might have gone a bit overboard with the detail for such a simple song, but it was fun
to make so who cares.




The note count/timing on the chords isn't exact, just play it by ear.

0:00
                  G                        C                       Cadd9
e|-------------------------------------------------------------------------------------|
B|-----------------------------------------------------------------3---3---0-----------|
G|-----------------------------------------0---0---0---0---0---0---0---0---0-----------|
D|--5--------------0---0---0---0---0---0---2---2---2---2---2---2---2---2---2-----------|
A|-----3h2-(2)-----2---2---2---2---2---2---3---3---3---3---3---3---3---3---3-----------|
E|----------3------3---3---3---3---3---3-----------------------------------------------|

	Hey,     Haven't seen you round in a  whi-----------------------------le

                   G                       C	       Cadd9
e|-------------------------------------------------------------------------------------|
B|-----------------------------------------------------3---3---3---3---3---0-----------|
G|-----------------------------------------0---0---0---0---0---0---0---0---0-----------|
D|--5--------------0---0---0---0---0---0---2---2---2---2---2---2---2---2---2-----------| x2
A|-----3h2--2------2---2---2---2---2---2---3---3---3---3---3---3---3---3---3-----------|
E|----------3------3---3---3---3---3---3-----------------------------------------------|

	Hey,     Haven't seen you round in a  whi-----------------------------le

0:41
e|---------------------------------------------------------------|
B|---------------------------------------------------------------|
G|---------------------------------------------------------------|
D|-5----------------------------------------5s7s5----------------|
A|---5h3--------2---2-----9----9----4---4-3----------------------|
E|------------3---3---s10---10---s5---5--------------------------|

e|---------------------------------------------------------------|
B|---------------------------------------------------------------|
G|---------------------------------------------------------------|
D|-----------------------------------5s7s5-----------------------|
A|---2---2-----9----9----4h5s7s5p4-3-----------------------------|
E|-3---3---s10---10---s5-----------------------------------------|

   I didn't...a month, I didn't...straight


e|---------------------------------------------------------------|
B|---------------------------------------------------------------|
G|---------------------------------------------------------------|
D|------------------------------------5s7s5----------------------|
A|---2---2----9h10s12s10p9----4---4-3----------------------------|
E|-3---3---10--------------s5---5--------------------------------|

  I haven't hung ... anyone, if I did... say

e|---------------------------------------------------------------|
B|---------------------------------------------------------------|
G|---------------------------------------------------------------|
D|-------------------------------5-s7----------------------------|
A|---2---2-----9----9----4---4-3---------------------------------|
E|-3---3---s10---10---s5---5-------------------------------------|

  I didn't...depressed, I didn't...all

e|----------------------------------------------------|
B|----------------------------------------------------|
G|----------------------------------------------------|
D|-------------------------------5h7p5----------------|
A|---2---2-----9----9----4---4-3----------------------|
E|-3---3---s10---10---s5---5--------------------------|

  I didn't... to bed, and I... up late

1:26

    G           D                A           C       D   C
e|-----------------------------------------------------------------|
B|--3--3--3--3-s10--10--10--10--s5--5--5--5------------------------|
G|--0--0--0--0---x---x---x---x---x--x--x--x--5-5-5-5-7-7-7-5-------|
D|--0--0--0--0-- x---x---x---x---x--x--x--x--5-5-5-5-7-7-7-5-------| x5
A|--2--2--3--3--s9---9---9---9--s4--4--4--4--3-3-3-3-5-5-5-3-------|
E|--3--3--3--3-s10--10--10--10--s5--5--5--5------------------------|

        1. When you're living your life,that's the price you pay

		2. Whenever I breathe out   You're breathing it in

		3. Whenever I breathe out   You're taking it all

		4. Whenever I breathe out   You're breathing in

		5. Whenever I breathe out   You take it all
2:08
e|---------------------------------------------------------------|
B|---------------------------------------------------------------|
G|---------------------------------------------------------------|
D|-9-7-9-7-5-7-5-7-12-10-12-10-9h10-9h10-9-----------------------|
A|-----------------------------------------12-10-9---------------|
E|---------------------------------------------------------------|

2:16
e|---------------------------------------------------------------|
B|---------------------------------------------------------------|
G|---------------------------------------------------------------|
D|-9-7-9-7-5-7-5-7-----------------------------------------------|
A|---------------------------------------------------------------|
E|-----------------8-8-8-7-3-------------------------------------|

2:25
e|---------------------------------------------------------------|
B|---------------------------------------------------------------|
G|-----------------------------12-------12-------12--------------|
D|-9-7-9-7-5-7-5-7-12-10-12-10----10-10----10-10----10-----------|
A|---------------------------------------------------------------|
E|---------------------------------------------------------------|

2:32
e|---------------------------------------------------------------|
B|---------------------------------------------------------------|
G|---------------------------------------------------------------|
D|-9-7-9-7-5-7-5-7-----------------------------------------------|
A|---------------------------------------------------------------|
E|-----------------8-8-8p7-3-------------------------------------|



2:41                                         *
    G           D                A           C       D   C
e|-----------------------------------------------------------------|
B|--3--3--3--3-s10--10--10--10--s5--5--5--5------------------------|
G|--0--0--0--0---x---x---x---x---x--x--x--x--5-5-5-5-7-7-7-5-------|
D|--0--0--0--0-- x---x---x---x---x--x--x--x--5-5-5-5-7-7-7-5-------| x6
A|--2--2--3--3--s9---9---9---9--s4--4--4--4--3-3-3-3-5-5-5-3-------|
E|--3--3--3--3-s10--10--10--10--s5--5--5--5------------------------|

1. Feelings are the positive, negative, positive, negative
2. I believe there's a positive, negative, positive, negative
3. New Seasons are the positive, negative [Tremolo bend + harmonic at first C chord]
4. 
5.                             [Tremolo bend + harmonic at first C chord]
6.                             [Tremolo bend + harmonic at first C chord]

3:28

e|---------------------------------------------------------------|
B|---------------------------------------------------------------|
G|---------------------------------------------------------------|
D|-9-7-9-7-5-7-5-7-12-10-12-10-9h10-9h10-9-----------------------|
A|-----------------------------------------12-10-9---------------|
E|---------------------------------------------------------------|

e|---------------------------------------------------------------|
B|---------------------------------------------------------------|
G|---------------------------------------------------------------|
D|-9-7-9-7-5-7-5-7-----------------------------------------------|
A|---------------------------------------------------------------|
E|-----------------8-8-8-7-3-------------------------------------|

e|---------------------------------------------------------------|
B|---------------------------------------------------------------|
G|-----------------------------12-------12-------12--------------|
D|-9-7-9-7-5-7-5-7-12-10-12-10----10-10----10-10----10-----------|
A|---------------------------------------------------------------|
E|---------------------------------------------------------------|

3:53
e|---------------------------------------------------------------|
B|---------------------------------------------------------------|
G|---------------------------------------------------------------|
D|-9-7-9-7-5-7-5-7-----------------------------------------------|
A|-----------------------------------------5---------------------|
E|-----------------8-8-8-8-8-7-7-7-8-8-8-7-----------------------|


4:00
    G           D                A           C       D   C
e|-----------------------------------------------------------------|
B|--3--3--3--3-s10--10--10--10--s5--5--5--5------------------------|
G|--0--0--0--0---x---x---x---x---x--x--x--x--5-5-5-5-7-7-7-5-------|
D|--0--0--0--0-- x---x---x---x---x--x--x--x--5-5-5-5-7-7-7-5-------| x6
A|--2--2--3--3--s9---9---9---9--s4--4--4--4--3-3-3-3-5-5-5-3-------|
E|--3--3--3--3-s10--10--10--10--s5--5--5--5------------------------|

1. Whenever, I breathe out, you're breathing it in [Tremolo bend at first D chord]
2. Whenever  I breathe out you take it all       [Tremolo bend + harmonic at first C chord]
3. Whenever I breathe out you're breathing it in
4. Whenever I breathe out.... ??     [Random squealing harmonics throughout]
5.       [Crazy tremolo harmonics throughout]
6.       [Crazy tremolo harmonics throughout]

4:48

e|-----------------------------------------------------|
B|-----------------------------------------------------|
G|-----------------------------------------------------|
D|--------------------------------5s7s5----------------|
A|--------2-----9----9----4---4-3----------------------|
E|-3---3----s10---10---s5---5--------------------------|


e|-----------------------------------------------------|
B|-----------------------------------------------------|
G|-----------------------------------------------------|
D|--------------------------------5s7s5----------------|
A|---2----2-----9----9----4---4-3----------------------|
E|-3---3----s10---10---s5---5--------------------------|

	I didn't... month, I did't.. straight

e|---------------------------------------------------------------|
B|---------------------------------------------------------------|
G|---------------------------------------------------------------|
D|------------------------------------5s7s5----------------------|
A|---2---2----9h10s12s10p9----4---4-3----------------------------|
E|-3---3---10--------------s5---5-----------3--------------------|

  I haven't hung ... anyone, if I did... say





Comments


Popular Modest Mouse tabs & chords
Wild Pack Of Family Dogs Chords
World At Large 1 Chords
A Life Of Arctic Sounds Tabs
Jaw Breaker Sweater Intro Tabs
Jesus Christ Was An Only Child 1 Tabs
Needle Point 1 Tabs
Never Ending Math Equation 4 Tabs
Night On The Sun 3 Tabs
Wild Pack Of Family Dogs Tabs
Wrong Decision Tabs


Song lyrics



↑ Back to top | Tablatures and chords are parodies/interpretations of the original songs. You may use it for private study, scholarship, research or language learning purposes only
© 2014 AZChords.com Contact us | Privacy policy | DMCA | Add/correct tabs | Request tabs | Top 50 tabs