» » »

Modest Mouse, Truckers Atlas Tabs (ver.1)

Artists:  A B C D E F G H I J K L M N O P Q R S T U V W X Y Z # 

Truckers Atlas Tabs (ver.1)

Modest Mouse Tabs
Rating:
0/5 (0 votes)
Truckers Atlas lessons Tabs too difficult? Try these video lessons and learn fast
                Verse

e---------|----------------------------------------------------|
B---------|------------------------------------4---------------|
G---------|-----------4----------------------------------------|
D---------|----------------------------------------------------|
A---------|--------------------------4--4-----------4/7--------|
E----12\0—|---4--4------4-0-0-0--------------------------------|

(1st time only)

Pre-Chorus

listen to teh struming patterns in teh song ya can figure it out pretty easy
e|---------------|
B|---------------|
G|--9----6----4--|
D|--x----x----x--|
A|--7----4----2--|
E|---------------|

Chorus
e----2-------------2---------------0-----0-------0--------0-------|
B------4------4------4------4--------4------4-------x---------4---|
G---------4--------------4----------------------------------------|
D-----------------------------------------------------------------|
A-----------------------------------------------------------------|
E-----------------------------------------------------------------|

2nd chorus
e--2p0-------2p0-------2p0------2p0-------2p0----------------------------|
B--------4-------------------4---------------------4-------2---4--2------|
G------------------4------------------4-----------------4-------------4--|
D------------------------------------------------------------------------|
A------------------------------------------------------------------------|
E------------------------------------------------------------------------|


outro
e---------------------------------------------------|
b---------------------------------------------------|
g---------------------------------------------------|
d---------------------------------------------------|
a-----------------------0p2^2^----------------------|
e--0-0-0h2p0h2p0------------------------------------|
            
Submit corrections

comments powered by Disqus
↑ Back to top | Modest Mouse Tabs for Truckers Atlas. Lyrics for acoustic guitar and electric guitar. Tablatures and chords are parodies/interpretations of the original songs. You may use it for private study, scholarship, research or language learning purposes only