>
 >
The View 2

The View 2 Guitar Tabs

Modest Mouse - The View 2 chords, tabs, tablatures, lyrics

Guitar lessons | Add/correct | Request | Top 50 tabs Artists:  A B C D E F G H I J K L M N O P Q R S T U V W X Y Z 0-9

The View 2 Guitar Tabs – Modest Mouse

CD, Sheet music, Poster

Do you like The View 2? Share with your friends now
Bass TabsBass Tabs v2ChordsTabsTabs v2Tabs v3Tabs v4Tabs v5Ukulele
----------------------------------------------------------------------------
                     THE VIEW - Modest Mouse
----------------------------------------------------------------------------


Tuning: Standard EADGBe


e|--------------------------------------------|
B|--------------------------------------------|
G|-------5--5--------5--5------3---2--2----2--|
D|--/5-5-5--5---/5-5----5--3-3-3---2--2----2--|
A|--------------------------------------------|
E|--------------------------------------------|

Although there are many variations, this is the basic outline of how the
main riff is played throughout the song:

e|----------------------0-0--------------0-0-----|
B|----------------------0-0--------------0-0-----|
G|-------------4-4--7---0-0---2-2-2-2-2--0-0-----|
D|--7--7--x-x--5-5--5---------3-3-3-3-3----------|
A|--7--7--x-x--------------------------------3/--|
E|-----------------------------------------------|

This is another version of that riff:

e|----------------------0-0--------------|
B|------------------7---0-0--------------|
G|--7----------4-4--7---0-0--2-2b-2b-2b--|
D|--7---7--x-x-5-5-----------3-3b-3b-3b--|
A|--7---7--x-x---------------------------|
E|----5----------------------------------|

just mess around with those and make em sound funky.


Riff played over the chorus:

e|--------15------------12------------13---|
B|-----13------------12------------13------|
G|--14------------12------------14---------|
D|-----------------------------------------|
A|-----------------------------------------|
E|-----------------------------------------|

  --13-12-13-12------------------------------------------------|
  ---------------15-15--13-13p12-12-13-12-13-12--13-13--13-----|
  ---------------------------------------------------------12--|
  -------------------------------------------------------------|
  -------------------------------------------------------------|
  -------------------------------------------------------------|

  --13-12-13-12------------------------------------------------|
  ---------------15-15--x-13p12-12-13-12-13-12--15-15--15-15\--|
  -------------------------------------------------------------|
  -------------------------------------------------------------|
  -------------------------------------------------------------|
  -------------------------------------------------------------|

Right before the second chorus, the solo guitar appears:

    wide and slow vibrato
e|------------------------|
B|--12~-------------------|
G|------------------------|
D|------------------------|
A|------------------------|
E|------------------------|

Guitar Solo:

e|--------------------------------------------------------------------------
B|-12+br---------------------------12+--------------------------------------
G|-------12+br------------------------12+-----------------------------------
D|--------------------------3-2-0--------------3-2--2-2-2-2/5-----------3-2-
A|-------------7+br---5\3-3---------------7+-3----------------5--3-3--3-----
E|--------------------------------------------------------------------------

  -------------------------------------------------------------------------
  ------------------------12+br------------------------12+-----------------
  -----------------------------12+br-----------------------12+-------------
  -2-2-2-2/5-------------------------------------3-2-0------------------3--
  -----------5--3-3..p0--------------7+br--5\3-3---------------7+br---3----
  -------------------------------------------------------------------------

                                                           (use bar)
----------------------------------------------------------------------|
----------------------------------------------------------------------|
----------------------------------------------------------------------|
-2p0-2p0-2p0-2p0-2p0-2p0-5-------------3--2--2-2-2-2-5----------------|
----------------------------5--3-3--3------------------5---3-3...bdr--|
----------------------------------------------------------------------|


Chords during breakdown:

e|----------------------------------------------|
B|--0-------------7--0-----------------------0--|
G|--0----5----4---7--2-----------5----4---7--2--|
D|--2----7----5------3------7----7----5---5--3--|
A|--3----7----7-------------7----7----7---------|
E|----------------------------------------------|


| /   slide up
| \   slide down
| br  bend, release
| bdr bend down, release (up)
| h   hammer-on
| p   pull-off
| ~   vibrato
| +   harmonic
| x   Mute note

============================================================================





Comments


Popular Modest Mouse tabs & chords
Heart Cooks Brain 2 Bass Tabs
Ionizes And Atomizes Bass Tabs
Float On 2 Chords
Gravity Rides Everything Chords
Fly Trapped In A Jar 1 Tabs
Karmas Payment Tabs
Life Like Weeds 2 Tabs
The View 4 Tabs
Tiny Cities Made Of Ashes Tabs
Wild Pack Of Family Dogs Ukulele


Song lyrics



↑ Back to top | Tablatures and chords are parodies/interpretations of the original songs. You may use it for private study, scholarship, research or language learning purposes only
© 2014 AZChords.com Contact us | Privacy policy | DMCA | Add/correct tabs | Request tabs | Top 50 tabs