» » »

The View Tabs (ver.2)

Artists:  A B C D E F G H I J K L M N O P Q R S T U V W X Y Z # 

The View Tabs (ver.2)

Modest Mouse
Rating:
0/5 (0 votes)

Tabs too difficult? Try these video lessons and learn fast.
                "The View" - Modest Mouse

Standard tuning.

Intro
[The slides aren't really exact.. I think Brock may knock the A string in with
it sometimes.  It's loose, so just whack on it.  As obscene as that may sound.]
|------------------------------|
|------------------------------|
|------------------------------|
|-----9-9----9-9-8-8-8-7-7--7--|
|--/9-9-9-/9-9-9-8-8-8-7-7--7--|
|------------------------------|


Main Rhythm (00:06)
[This is a little odd; it needs to be played around with quite a bit.  There's
quite a bit of scratching and slide improvisation on the lower strings, and he
always treats the Eb ending a little differently every time.  Brock also leaves
out the A note of that same chord most of the time, but plays it sometimes..
like the bend I've shown there at the end.  So I just put the note in parenthesis
to show that sometimes it's there and sometimes it ain't.  You'll need to feel it
out for yourself.  Needless to say, you'll have to listen to this bit to get it
right, it's nigh impossible to tab it all out correctly.  It's supposed to be fun. 
So.. y'know.. have fun with it.]
|---------------------------------------------------------|
|---------------------------------------------------------|
|---------------------------------------------------------|
|--7-9-9-12-9-(7)-(7)-(7)-(7)-(7)-(0)--7-9-9-12-9-(7)-7^--|
|--7-9-9--9-9--8---8---8---8---8---5---7-9-9--9-9--8------|
|---------------------------------------------------------|


Lead Part #1 (00:29)
[Played on keyboard, I think?  This is it for guitar.]
|-------------------------------------|
|-----10--10------------------10------|
|------------12-10-12-10-9-------9----|
|--12----------------------12------7--|
|-------------------------------------|
|-------------------------------------|


Chorus Rhythm (00:53)
[Something strange going on here with a whammy pedal of some sort.  Which I don't
have.  So you're stuck with the basic chords here, following the bass line.  If
someone wants to fix this up real nice, please do so.]
|----------------------------|
|----------------------------|
|--5--7--9--10---5--7--------|
|--5--7--9--10---5--7--2--3--|
|--3--5--7---8---3--5--2--3--|
|----------------------0--1--|


Lead Part #2 (00:53)
|--------------------------------|
|--------20--------17--------18--|
|-----17--------17--------17-----|
|--17--------17--------17--------|
|--------------------------------|
|--------------------------------|


Mini Solo (01:08)
[Use the main rhythm behind this part.]
|------------------------------------------------------|
|--18-17-18-17-15-15-----------------------------------|
|--------------------17-17-16-17-16-17-16-17-17-17-----|
|--------------------------------------------------17--|
|------------------------------------------------------|
|------------------------------------------------------|

|------------------------------------------------------|
|--18-17-18-17-15-15----------------------15-15-15-15--|
|--------------------17-17-16-17-16-17-16--------------|
|------------------------------------------------------|
|------------------------------------------------------|
|------------------------------------------------------|


Solo (02:19)
[Lead in with the mini solo.  On the very last note, you can either bend a B note
up to the C or use a somewhat smoother intonation.  The rhythm guitar behind this
part doesn't come in until the second half, and even then it's spotty and very
sporadic.  It's based on the main rhythm, however, so just scratch around with that.]
|--7^r---------------------7--------------------------------------------------------|
|------8^r-------------------8------------------------------------------------------|
|----------9^r-----------------9----------------------------------------------------|
|--------------------3-2-0-----------3-2~2-2-2-2-5-0~------3-2~2-2-2-2-5-0~---------|
|--------------3^r-3-------------3^r-----------------3-3-3-----------------3-3-3p0--|
|-----------------------------------------------------------------------------------|

|--7^r---------------------7---------------------------------------------------------|
|------8^r-------------------8-------------------------------------------------------|
|----------9^r-----------------9^r---------------------------------------------------|
|--------------------3-2-0-----------3-2p0(x6)-5-0-------3-2~2-2-2-2-2-5-0-----------|
|--------------3^r-3---------------3---------------3-3-3-------------------3-3-2^3---|
|------------------------------------------------------------------------------------|


Quieter Part (02:50)
|----------3-1--|
|-----3--5-3-1--|
|--0--2--4---2--|
|--2--0--2------|
|--3--3---------|
|---------------|
            
Tabs too difficult? Try these video lessons and learn fast.




comments powered by Disqus
↑ Back to top | Tablatures and chords are parodies/interpretations of the original songs. You may use it for private study, scholarship, research or language learning purposes only