» » »

Stars Are Projectors Tabs (ver.1)

Artists:  A B C D E F G H I J K L M N O P Q R S T U V W X Y Z # 

Stars Are Projectors Tabs (ver.1)

Modest Mouse
Rating:
0/5 (0 votes)

Hard to play? Try these video lessons and learn fast.
                Intro x3
e-----------------------------------------
B-----------------------------------------
G-----------------------------------------  
D-----------------------------------------
A----9/10\9/10\9-7-----9/10\9/10\9-7------   For the very first note use a harmonic
E--7---------------7-7---------------7-3-7

Pre-Chorus x4 
e-----------------------------------------
B-----------------------------------------
G-----------------------------------------
D-----------------------------------------
A----9-10-9-7---9-10-9-7------------------
E--7----------7----------3----------------


Introlude x3
e-----------------------------------------
B-----------------------------------------
G-----------------------------------------  
D-----------------------------------------
A----9/10\9/10\9-7-----9/10\9/10\9-7------   
E--7---------------7-7---------------7-3-7


Pre-Chorus x3 
e-----------------------------------------
B-----------------------------------------
G-----------------------------------------
D-----------------------------------------
A----9-10-9-7---9-10-9-7------------------
E--7----------7----------3----------------

Then the chorus then the instrumental comes in
            
Hard to play? Try these video lessons and learn fast. | Correct




comments powered by Disqus
↑ Back to top | Tablatures and chords are parodies/interpretations of the original songs. You may use it for private study, scholarship, research or language learning purposes only