» » »

*** Luck Tabs (ver.1)

Artists:  A B C D E F G H I J K L M N O P Q R S T U V W X Y Z # 

*** Luck Tabs (ver.1)

Modest Mouse
Rating:
0/5 (0 votes)

Tabs too difficult? Try these video lessons and learn fast.
                heres how i play it:

first riff
e--------------------
b--------------------
g--------------------
d------------7h9-----
a---------7h9---7h9--
e------7h9-----------

2nd riff
e----------------------------
b---------------9*-9*-9*-9*--
g--9*-9*-9*-9*-7--7--7--7----
d-7--7--7--7-----------------
a----------------------------
e----------------------------

*for these notes i use a whammy pedal
you could use a whammy bar if u have one
if u dotn, then just try bending it far.

listen to the song for the order of the riffs
            
Tabs too difficult? Try these video lessons and learn fast.


comments powered by Disqus
↑ Back to top | Tablatures and chords are parodies/interpretations of the original songs. You may use it for private study, scholarship, research or language learning purposes only