» » »

Education Bass tabs (ver.1)

Artists:  A B C D E F G H I J K L M N O P Q R S T U V W X Y Z # 

Education Bass tabs (ver.1)

Modest Mouse
Rating:
0/5 (0 votes)

Hard to play? Try these video lessons and learn fast.
                -------------------------------------------------------------------------------
			     Education – Modest Mouse
-------------------------------------------------------------------------------


Tuning: EADG

There are a few other sections in this song but they are just variations of what I’ve 
You should be able to figure them out with what I’ve provided.

G|-----9------11-------12--------9------------------------|
D|--------------------------------------------------------|
A|--7-----9------10--------7------------------------------|
E|--------------------------------------7777--5---3333—-0-|


G|-----9------11-------12--------9------------------------|
D|--------------------------------------------------------|
A|--7-----9------10--------7----------------------5555—-5-|
E|--------------------------------------7777—7------------|


G|-----9------11-------12--------9-------17----16----14----12---10-|
D|-----------------------------------------------------------------|
A|--7-----9------10--------7----------15----14----12----10----9----|
E|-----------------------------------------------------------------|

This is my first tab so let me know what you think.
            
Hard to play? Try these video lessons and learn fast. | Correct




comments powered by Disqus
↑ Back to top | Tablatures and chords are parodies/interpretations of the original songs. You may use it for private study, scholarship, research or language learning purposes only