» » »

Dance Hall Tabs (ver.2)

Artists:  A B C D E F G H I J K L M N O P Q R S T U V W X Y Z # 

Dance Hall Tabs (ver.2)

Modest Mouse
Rating:
0/5 (0 votes)

Hard to play? Try these video lessons and learn fast.
                dance hall, by modest mouse, 


This is long because im giving guitar,
bass, and chords. hey, i may even thro 
in some lyrics.



Tuning: standard

The chords for the whole song are...

Em, G, Bm, Em.
These are done in partial chords the whole song.

Bass line intro

G|-------------|----|-------------|----|-------------|----|-------------|
D|-------------|----|-------------|----|-------------|----|--2--2--2--2-|
A|-------------|----|-------------|----|--2--2--2--2-|-X2-|-------------|
E|--0--0--0--0-|-X2-|--3--3--3--3-|-X2-|-------------|----|-------------|



G|------------|
D|--2p0-------|
A|------2-----| Repete bassline intro thru whole song. (on bass that is)
E|--------0---|

Guitar on intro. every 8th bass notes....
e|---3-----|-----7--7--7--7--7p5-------| As you may have guessed,
B|---------|---------------------8-5---| This guitar run-down 
G|---------|---------------------------| goes along with the bass
D|---------|---------------------------| run-down.
A|---------|---------------------------|
E|---------|---------------------------|  moving on...

The second time it repetes instead of a run-down the guitar goes.
e|---00000000000--------
B|---00000000000--------
G|----------------------
D|----------------------
A|----------------------
E|----------------------

starts with chorus.
e|--3---------------------3----------|
B|--5------8------12------5----------|
G|--4--X4--7--X4--11--X4--4--X4------| Main chord progression 
D|--2------5------9-------2----------| thu song.
A|-----------------------------------|
E|-----------------------------------|

e|-7--7--7--7p5----------|
B|--------------8-5------| This is repeted several
G|-----------------------| times in the chorus.
D|-----------------------|
A|-----------------------|
E|-----------------------|

then verse.
e|--3---------------------3----------|
B|--5------8------12------5----------|
G|--4--X4--7--X4--11--X4--4--X4------| Main chord progression 
D|--2------5------9-------2----------| thu song.
A|-----------------------------------|
E|-----------------------------------|


lead riff on "pre chorus" type thing.
e|--7--5~~--7--5----------7--5~~--7--8--7--5--7--5~--7--5---------------|
B|----------------8--5~~-----------------------------------8--7--5~555--|
G|----------------------------------------------------------------------|
D|----------------------------------------------------------------------|
A|----------------------------------------------------------------------|
E|----------------------------------------------------------------------|

there are a whole bunch of little quirky riffs, and licks here and
there thru the song, but I watched a video of these guys,and.... 
one of the guitarist has a SEMI-CIRCLE of effects pedals around 
him. Not having these 10-15 pedals, or the time to go thru a ton of settings,I
have no way of knowing 
how to make the wierd (but awesome) sounds.

here are the lyrics.

I'm gonna dance all, dance hall, ever day.  X3

well, ima give myself another one, 'cause i have too much to say!

dance hall! dance hall! every day!
I'm gonna dance all, dance hall, ever day.  X2
I'm gonna angle t'ward telepathy, 
'cause i don't know the words to say!

well, im gonna act up, but im not in your f**kin' play.
I'll let you win the argument if things still go my way,
I'm gonna dance all, dance hall, ever day.


I'm gonna dance all, dance hall, ever day.
I'm gonna dance all, dance hall, ever day.
I'm gonna dance...all,uh-dance hall, ever day.

I'm gonna dance all, dance hall, ever day.
I'm gonna dance all, dance hall, ever day.
I'm gonna dance all, dance hall, ever day.
I'm gonna dance all, dance hall, ever day.

well I haven't had enough, and i said i had my fill.
The past does not exist, and im told it never will.
I guess that im stuck here like a plant,
on a window sill.

I'm gonna dance all, dance hall, ever day. X3
I'm gonna tell you what you wanna here, anyway!

I'm gonna give myself a shot, I could give myself a pill!
Gonna go and buy myself a little more...time to kill.
oooh I need a can opener, 'cause i got some beans...to spill.

I'm gonna dance all, dance hall, ever day. X4

well somehow or another, I fell for every scam,
but im dancing on the tin roof, cat be damned!!
well, commitin' crimes, running down the alley.
I am the captain, and you are in the galley.

I'm gonna dance all, dance hall, ever day.  X3
I'm gonna dance all, dance hall, all night long right now.
            
Hard to play? Try these video lessons and learn fast. | Correct




comments powered by Disqus
↑ Back to top | Tablatures and chords are parodies/interpretations of the original songs. You may use it for private study, scholarship, research or language learning purposes only