» » »

Custom Concern Tabs (ver.1)

Artists:  A B C D E F G H I J K L M N O P Q R S T U V W X Y Z # 

Custom Concern Tabs (ver.1)

Modest Mouse
Rating:
0/5 (0 votes)

Hard to play? Try these video lessons and learn fast.
                C                 G
e------------------------------------------------------------------
b------------------------------------------------------------------
g----------0------------------------------0-----------------------        x2
d----------------0h2-------------0h2-----------------------------
a----3--3-----------------3--3------------------------------------
e-------------------------------------------------------------------

e-------------------------------------------------------------------
b-------------------------------------------------------------------
g-------------------------------------------------------------------
d-------------------------------------------------------------------
a—0—0—3—3—0—0—3—3—0—0—3—3—0—0-3-0
e-------------------------------------------------------------------

e-------------------------------------------------------------------
b-------------------------------------------------------------------
g-------------------------------------------------------------------
d-------------------------------------------------------------------      x8
a------2h3h-------------------------------------------------------
e—3---------------------------------------------------------------
    F
e-------------------------------------------------------------------
b-------------------------------------------------------------------
g-------------------------------------------------------------------
d-------------------------------------------------------------------
a---------0h2------------0h2--------0h2------------0h2--------
e—1—1-----1—1—1------1—1-------1—1—1-------------
            
Hard to play? Try these video lessons and learn fast. | Correct




comments powered by Disqus
↑ Back to top | Tablatures and chords are parodies/interpretations of the original songs. You may use it for private study, scholarship, research or language learning purposes only