» » »

Beach Side Property Bass tabs (ver.1)

Artists:  A B C D E F G H I J K L M N O P Q R S T U V W X Y Z # 

Beach Side Property Bass tabs (ver.1)

Modest Mouse
Rating:
4/5 (2 votes)

Hard to play? Try these video lessons and learn fast.
                -------------------------------------------------------------------------------
-------------------------------------------------------------------------------


Tuning:EADG


Intro
  1  +  2  +  3  +  4  +  |1  +  2  +  3  +  4  +  |1  +  2  +  3  +  4  +  |1  +  2  +  
 +  4  +|
G|------------------------|------------------12----|------------------------|---------------15-17--|
D|------13----------13----|------13----13-15----15-|---------------17----17-|15-------15-17--------|
A|---------13----------13-|---------13-------------|------18----------------|---18-----------------|
E|11-11-------11-11-------|11-11-------------------|15-15----15-------15----|----------------------|
x10

Verse
  1  +  2  +  3  +  4  +  |1  +  2  +  3  +  4  +  |1  +  2  +  3  +  4  +  |1  +  2  +  
 +  4  +|
G|------------------------|------------------------|------------------------|----------------------|
D|------12----------------|------------------------|------7-----------------|----------------------|
A|---------10-------------|------------------------|---------5--------------|----------------------|
E|12-12-------------------|------------------------|7--7--------------------|----------------------|


  1  +  2  +  3  +  4  +  |1  +  2  +  3  +  4  +  |1  +  2  +  3  +  4  +  |1  +  2  +  
 +  4  +|
G|------------------------|------------------------|------------------------|----------------------|
D|------7-----------------|------------------------|------5-----------------|----------------------|
A|---------7--------------|------------------------|---------5--------------|----------------------|
E|5--5--------------------|------------------------|3--3--------------------|----------------------|

Verse Part two
   1  +  2  +  3  +  4  + |1  +  2  +  3  +  4  +  |1  +  2  +  3  +  4  +  |1  +  2  +  
 +  4  +|
G|------------------------|------------------------|------------------------|----------------------|
D|------12----------------|------------------------|------7-----------------|----------------------|
A|---------10-------------|------------------------|---------5--------------|----------------------|
E|12-12-------------------|------------------------|7--7--------------------|----------------------|


  1  +  2  +  3  +  4  +  |1  +  2  +  3  +  4  +  |1  +  2  +  3  +  4  +  |1  +  2  +  
 +  4  +|
G|------------------------|------------------------|------------------------|----------------------|
D|------------------7-----|------7-----------------|------------------5-----|------5-----------5/--|
A|---------------------7--|---------7--------------|---------------------5--|---------5-----5------|
E|5-----------------------|---5-----------5-/7\----|3-----------------------|---3------------------|
x4


Bridge
  1  +  2  +  3  +  4  +  |1  +  2  +  3  +  4  +  |1  +  2  +  3  +  4  +  |1  +  2  +  
 +  4  +|
G|---------10-------10----|---------12-------12----|------------------------|----------------------|
D|------------------------|------------------------|------------------------|----------------------|
A|8--8--8--------8-----8--|10-10-10-------10----10-|12~---------------------|----------------------|
E|------------------------|------------------------|------------------------|----------------------|
x3


Four bar rest


Break
  1  +  2  +  3  +  4  +  |1  +  2  +  3  +  4  +  |1  +  2  +  3  +  4  +  |
G|------------------------|------------17----------|------------------------|
D|------------15----------|14----------------------|------------------------|x5
A|------------------15----|------------------------|------------------------|
E|13----13----------------|------------------------|------------------------|

Loud
  1  +  2  +  3  +  4  +  |1  +  2  +  3  +  4  +  |1  +  2  +  3  +  4  +  |1  +  2  +  
 +  4  +|
G|------------------------|------------17----------|------------------------|------------17\---15--|
D|------------15----------|------14----------------|------------15----------|------14--------------|
A|------------------15----|------------------------|------------------15----|----------------------|
E|13----13----------------|------------------------|13----13----------------|----------------------|
x7

Break
  1  +  2  +  3  +  4  +  |1  +  2  +  3  +  4  +  |1  +  2  +  3  +  4  +  |
G|------------------------|------------17----------|------------------------|
D|------------15----------|14----------------------|------------------------|x6
A|------------------15----|------------------------|------------------------|
E|13----13----------------|------------------------|------------------------|

End
  1  +  2  +  3  +  4  +  |1  +  2  +  3  +  4  +  |1  +  2  +  3  +  4  +  |1  +  2  +  
 +  4  +|
G|------------------------|------------17----------|------------------------|------------17\---15--|
D|------------15----------|------14----------------|------------15----------|------14--------------|
A|------------------15----|------------------------|------------------15----|----------------------|
E|13----13----------------|------------------------|13----13----------------|----------------------|
x2

  1  +  2  +  3  +  4  +  |1  +  2  +  3  +  4  +  |1  +  2  +  3  +  4  +  |1  +  2  +  
 +  4  +|
G|------------------------|------------17----------|------------------------|------------17--------|
D|------------15----------|------14----------------|------------15----------|------14--------------|
A|------------------15----|------------------------|------------------15----|----------------------|
E|13----13----------------|------------------------|13----13----------------|----------------------|
x6

  1  +  2  +  3  +  4  +  |1  +  2  +  3  +  4  +  |
G|------------------------|------------17----------|
D|------------15----------|------14----------------|
A|------------------15----|------------------------|
E|13----13----------------|------------------------|


| /  slide up
| \  slide down
| h  hammer-on
| p  pull-off
| ~  vibrato
| +  harmonic
| x  Mute note
===============================================================================
            
Hard to play? Try these video lessons and learn fast. | Correct




comments powered by Disqus
↑ Back to top | Tablatures and chords are parodies/interpretations of the original songs. You may use it for private study, scholarship, research or language learning purposes only