» » »

Autumn Beds Tabs (ver.1)

Artists:  A B C D E F G H I J K L M N O P Q R S T U V W X Y Z # 

Autumn Beds Tabs (ver.1)

Modest Mouse
Rating:
5/5 (2 votes)

Hard to play? Try these video lessons and learn fast.
                

*[NOTE]: this tab does NOT include the banjo melodies

Standard tuning [Capo III]

Chords used:
      EADGBe
Bm/D: 000432
Cmaj7:032000
C/G:  032003
C9:   320020
G*:   320003


*[NOTE]: the chords accompanying this tab are just approximate fits to the tab being 
they are not definite fits


Tab 1:
   G                                Cmaj7
e|-----------------3------------------------0-----------------------|
B|---0---0-1-0-------0---0-1-0----------------------3-------1-------|
G|-----0-------2-0-----0-------2-0----0---0---0---0---0---0---0---0-|
D|--------------------------------------0-------0-------0-------0---|
A|----------------------------------3-------------------------------|
E|-3----------------------------------------------------------------|


Tab 2:
   C/G                   Bm/D
e|-3-3--5-3---3-3--5-3---2-2--3-2---7-7--5-5--3-3--2---|
B|-0-0--0-0---0-0--0-0---3-3--3-3---3-3--3-3--3-3--3---|
G|-0-0--0-0---0-0--0-0---4-4--4-4---4-4--4-4--4-4--4---|
D|-2-2--2-2---2-2--2-2---0-0--0-0----------------------|
A|-3-3--3-3---3-3--3-3---------------------------------|
E|-----------------------------------------------------|


Tab 3:
   C/G             Cmaj7   C9
e|-3---2---0-0-0---0-0—1/2--------------|
B|-0---0---0-0-1---0-0--0--3-----0-3----|
G|-0---0---0-0-0---0-0--0------0--------|
D|-2---2--------------------------------|
A|-3---3--------------------------------|
E|--------------------------------------|

Tab 4:
   C/G             Cmaj7   C9
e|-3---2---0-0-0---0--3-----------------|
B|-0---0---0-0-1---0-----1-0------0-3---|
G|-0---0---0-0-0---0------------0-------|
D|-2---2--------------------------------|
A|-3---3--------------------------------|
E|--------------------------------------|


========================================================================

Tab structure and chords with lyrics:

Chorus 1: [use Tab 1]
                                   G*
We won't be sleeping in our autumn beds
Cmaj7                              G*    Cmaj7 – G* - Cmaj7 – G*
We won't be sleeping in our autumn beds
Cmaj7                              G*
We won't be sleeping in our autumn beds
Cmaj7                              G*
We won't be sleeping in our autumn beds


Verse 1: [use Tab 2]
C/G          Bm/D  C/G                                 Bm/D
     October came,      our case got stuck with the DA again
C/G                            Bm/D                                C/G
    They pulled up the welcome mat,  so many times they hurt their back
                               Bm/D
As sure as clocks are bleeding time, we'll show up early just to wait in line


Chorus 2: [use Tab 2]
C/G
We won't be sleeping, we won't be sleeping
Bm/D
We won't be sleeping, we won't be sleeping


Verse 2: [use Tab 3 & 4]
C/G           Cmaj7  C9  C/G                            Cmaj7 C9
    As August came            our case is drawing to an end

[no tabs/chords]
They said guilty so many times
All I heard was just the buzzing lights
As sure as lead sinks were the same
We're just more laundry that they need to hang


Outro Chorus: [use Tab 1]
Cmaj7                              G*
We won't be sleeping in our autumn beds
Cmaj7                              G*
We won't be sleeping in our autumn beds
Cmaj7
We won't be sleeping... [continues repeating to fade out]
            
Hard to play? Try these video lessons and learn fast. | Correct




comments powered by Disqus
↑ Back to top | Tablatures and chords are parodies/interpretations of the original songs. You may use it for private study, scholarship, research or language learning purposes only