>
 >
A Manic Depressive Named Laughing Boy

A Manic Depressive Named Laughing Boy Guitar Tabs

Modest Mouse - A Manic Depressive Named Laughing Boy chords, tabs, tablatures, lyrics

Guitar lessons | Add/correct | Request | Top 50 tabs Artists:  A B C D E F G H I J K L M N O P Q R S T U V W X Y Z 0-9

A Manic Depressive Named Laughing Boy Guitar Tabs – Modest Mouse

CD, Sheet music, Poster

Do you like A Manic Depressive Named Laughing Boy? Share with your friends now
Tabs


| /  slide up
| \  slide down
| h  hammer-on
| p  pull-off
| ~  vibrato
| +  harmonic
| x  Mute note

e|--------------------------------------|2x
b|--------------------------------------|
g|-----------------7----7--7--7---------|
D|-----2----5---------------------------|
A|--------------------------------------|
E|--------------------------------------|


e|--------------------------------------|2x
b|--------------------------------------|
g|-----------------7--7---7----7--------|
D|--------------------------------------|
A|----2----5----------------------------|
E|--------------------------------------|

do that a couple of times and then strum this chord for while


e|----------------------------|
b|----------------------------|
g|----7-----7-----7-----------|
D|----0-----0-----0-----------|
A|----5-----5-----5-----------|
E|----------------------------|


e|------------------------------------------|
b|------------------------------------------|
g|------------------------------------------|
D|------------------------------------------|
A|--2--2--2--2--2--2--0--0--0--0--0--0------|
E|------------------------------------------|


e|---2/--------------|3x
b|---2/-------0------|
g|---2/-------0------|
D|---2/-------0------|
A|---2/--------------|
E|-------------------|


e|---2/---------------|
b|---2/---------------|
g|---2/---------------|
D|---2/---------------|
A|---2/---------------|
E|--------------------|


e|----------------------------------------------|
b|----------------------------------------------|
g|----------------------------------------------|
D|----------------------------------------------|
A|--2--2--2--2--2--2--0--0--0--0--0--0--2--2----|
E|----------------------------------------------|


e|-----------------------------|
b|-----------------------------|
g|----7-----7x-----7-----------|
D|----0-----0x-----0-----------|
A|----5-----5x-----5-----------|
E|-----------------------------|


e|---2/--------------|4x
b|---2/-------0------|
g|---2/-------0------|
D|---2/-------0------|
A|---2/--------------|
E|-------------------|


e|---2/--------------|3x
b|---2/-------0------|
g|---2/-------0------|
D|---2/-------0------|
A|---2/--------------|
E|-------------------|


e|---0----0x----0---------------|
b|---0----0x----0---------------|
g|---0----0x----0---------------|
D|---0----0x----0---------------|
A|------------------------------|
E|------------------------------|


e|---9\-------------|
b|---9\-------------|
g|---9\-------------|
D|---9\-------------|
A|------------------|
E|------------------|


e|------------------------------|
b|------------------------------|
g|---4x----4x---4x----4x--------|
D|---0x----0x---0x----0x--------|
A|---2x----2x---2x----2x--------|
E|------------------------------|


repeat this pattern for a bit, gotta listen to the song it changes a lot
e|----------------------------------------|
b|----------------------------------------|
g|--4--0--0---4----0--0----4--4----4--0---|
D|--0--0--0---0----0--0----0--0----0--0---|
A|--2--0--0---2----0--0----2--2----2--0---|
E|----------------------------------------|


then
e|-------------------------------|
b|-------------------------------|
g|-------------------------------|
D|--2---0----2p------------------|
A|-------------------------------|
E|-------------------------------|


e|--------------------------------------------|
b|--------------------------------------------|
g|--4----0--0--4---0--0---4--4---4--0---------|
D|--0----0--0--0---0--0---0--0---0--0---------|
A|--2----0--0--2---0--0---2--2---2--0---------|
E|--------------------------------------------|


e|------------------------|
b|------------------------|
g|------------------------|
D|----7---5---4--5--4p----|
A|------------------------|
E|------------------------|


e|-------------------------------------|
b|-------------------------------------|
g|--4---0--0--4---0--0---4--4---4--0---|
D|--0---0--0--0---0--0---0--0---0--0---|
A|--2---0--0--2---0--0---2--2---2--0---|
E|-------------------------------------|


e|------------------|3x
b|------------------|
g|------------------|
D|--7---5---4---0---|
A|------------------|
E|------------------|


e|----------------------|
b|----------------------|
g|----------------------|
D|---2--0--2--0---2--2--|
A|----------------------|
E|----------------------|


e|----------------------------------------------|
b|----------------------------------------------|
g|--4---0--0---4---0--0---4--4---4--0-----------|
D|--0---0--0---0---0--0---0--0---0--0-----------|
A|--2---0--0---2---0--0---2--2---2--0-----------|
E|----------------------------------------------|


e|----------------------------------|2x
b|----------------------------------|
g|----------------------------------|
D|---9---9---7--7--5h4--0-----------|
A|----------------------------------|
E|----------------------------------|

this is not how it is exactly played, changes to much to write it down
e|-------------------------------------|
b|-------------------------------------|
g|--4----0--0--4---0--0--0------4------|
D|--0----0--0--0---0--0--0------0------|
A|--2----0--0--2---0--0--0------2------|
E|-------------------------------------|


e|---------------------|
b|---------------------|
g|----11b----9b--------|
D|----0b-----0b--------|
A|----9b-----7b--------|
E|---------------------|

that's the basic variation figure the rest out
e|---------------------------------------|
b|---------------------------------------|
g|---------------------------------------|
D|--7777----55--44--55--44--5--4--0------|
A|---------------------------------------|
E|---------------------------------------|


do this for a bit
e|----------------------------------------|
b|----------------------------------------|
g|--4----0--0---4---0--0---4--4---4---0---|
D|--0----0--0---0---0--0---0--0---0---0---|
A|--2----0--0---2---0--0---2--2---2---0---|
E|----------------------------------------|

then
e|---------------------------------------------------------------------|
b|---------------------------------------------------------------------|
g|---------------------------------------------------------------------|
D|------------2--0----------------2--0--0--0-0--2-0-0---7--------------|
A|---0---0----------5---0--0-----------------------------------0-0-----|
E|---------------------------------------------------------------------|


e|----------------------------------------|
b|----------------------------------------|
g|----------------------------------------|
D|----------------------------------------|
A|--2--2--2--2--2--2--0--0--0--0--0--0----|
E|----------------------------------------|

e|-------------------------------|
b|-------------------------------|
g|---4x----4x---4x----4x---------|
D|---0x----0x---0x----0x---------|
A|---2x----2x---2x----2x---------|
E|-------------------------------|


e|----------------------------------------|
b|----------------------------------------|
g|----------------------------------------|
D|----------------------------------------|
A|-----0---7b---0--7b---0--7b---9---12----|
E|----------------------------------------|


e|----------------------------------------------|
b|----------------------------------------------|
g|-----------------------------------7----4-----|
D|----------------------------------------------|
A|-----0---7b---0--7b---0--7b-------------------|
E|----------------------------------------------|

song fades
e|-----------------------------------|
b|-----------------------------------|
g|-----------------------------------|
D|----7---5---4--5--4p---------------|
A|-----------------------------------|
E|-----------------------------------|


This song isn't technically hard to play but all the different variations make it 
If the tuning doesn't sound right, tune like in the middle of drop d and standard. that will 
the right sound sometimes.





Comments


Popular Modest Mouse tabs & chords
Paper Thin Walls Bass Tabs
Polar Opposites Bass Tabs
3rd Planet 5 Tabs
Closing Time Tabs
Float On (Intro Ver 2) Tabs
Heart Cooks Brain 1 Tabs
Satin In A Coffin 1 Tabs
Talking Shit About A Pretty Sunset 2 Tabs
World At Large 2 Tabs
Worms Vs Birds Intro 1 Tabs


Song lyrics



↑ Back to top | Tablatures and chords are parodies/interpretations of the original songs. You may use it for private study, scholarship, research or language learning purposes only
© 2014 AZChords.com Contact us | Privacy policy | DMCA | Add/correct tabs | Request tabs | Top 50 tabs