>
 >
Alone Down There 1

Alone Down There 1 Guitar Tabs

Modest Mouse - Alone Down There 1 chords, tabs, tablatures, lyrics

Guitar lessons | Add/correct | Request | Top 50 tabs Artists:  A B C D E F G H I J K L M N O P Q R S T U V W X Y Z 0-9

Alone Down There 1 Guitar Tabs – Modest Mouse

CD, Sheet music, Poster

Do you like Alone Down There 1? Share with your friends now
TabsTabs v2Tabs v3

Tuning:Standard

(Intro Riff)
e|-------------------------------------|
B|-------------------------------------|
G|----------4--------------------------|
D|-------4-----4-----------------------|
A|-2-2-2-------------------------4--/9-|
E|-----------------3--3--3p2--2--------|

(Rake Fill One)
e|-----7~--|
B|---7-----|
G|-7-------|
D|---------|
A|---------|
E|---------|

(Rake Fill Two)
e|------------------|
B|-----10~----8~----|
G|---7--------------|
D|-9----------------|
A|------------------|
E|------------------|

(Rake Fill Three)
e|----------7~------|
B|-----7~-----------|
G|---7--------------|
D|-9----------------|
A|------------------|
E|------------------|

(Pre-Chorus/Chorus/Post-Chorus Chords)
e|----------------------|
B|----------------------|
G|--4-------------------|
D|--4----4----5----7----|
A|--2----4----5----7----|
E|-------2----3----5----|
    B5   F#5  G5   A5

(Second Guitar Chorus)
e|------------------------------------------------|
B|------------------------------------------------|
G|------------------------------------------------|
D|-9--9-7-5----4----2----7----5--4h5--5--4\2--0---|
A|------------------------------------------------|
E|------------------------------------------------|

NOTE: Small improvisation occurs on this each time its played.

(Second Guitar Pre-Outro)
e|----------------------------------------------------------------------|
B|----------------------------------------------------------------------|
G|-7--7-7-7-7-7-7-7\6--6-6-6-6-6-6-6/7--7-7-7-7-7-7-7/9--9-9-9-9-9-9----|
D|-x--x-x-x-x-x-x-x-x--x-x-x-x-x-x-x-x--x-x-x-x-x-x-x-x--x-x-x-x-x-x----|
A|-5--5-5-5-5-5-5-5\4--4-4-4-4-4-4-4/5--5-5-5-5-5-5-5/7--7-7-7-7-7-7----|
E|----------------------------------------------------------------------|

(Guitar One Outro)
e|-------------------------------------------------------------------------|
B|-------------------------------------------------------------------------|
G|-7--7-7-7-7-11-11-11-11-11--7--7-7-7-7--6--6-6-6-6--4--4-4-4-4-----------|
D|-x--x-x-x-x--x--x--x--x--x--x--x-x-x-x--x--x-x-x-x--x--x-x-x-x--5--5-5-5-|
A|-5--5-5-5-5--9--9--9--9--9--5--5-5-5-5--4--4-4-4-4--2--2-2-2-2--x--x-x-x-|
E|----------------------------------------------------------------3--3-3-3-|

e|-------------------------------------------------------------------------|
B|-------------------------------------------------------------------------|
G|----------------6--6-6-6-6----7--7-7-7-7-11-11-11-11-11--7--7-7-7-7--6--6|
D|-5--7--7-7-7-7--x--x-x-x-x----x--x-x-x-x--x--x--x--x--x--x--x-x-x-x--x--x|
A|-x--x--x-x-x-x--4--4-4-4-4----5--5-5-5-5--9--9--9--9--9--5--5-5-5-5--4--4|
E|-3--5--5-5-5-5-----------------------------------------------------------|

e|-------------------------------------------------------------------------|
B|-------------------------------------------------------------------------|
G|-6-6-6--4--4-4-4-4--------------------------6--6-6-6-6----4--------4-----|
D|-x-x-x--x--x-x-x-x--5--5-5-5-5--7--7-7-7-7--x--x-x-x-x----x--------x-----|
A|-4-4-4--2--2-2-2-2--x--x-x-x-x--x--x-x-x-x--4--4-4-4-4----2--------2-----|
E|--------------------3--3-3-3-3--5--5-5-5-5-------------------------------|

e|-------------------------------------------------------------------------|
B|-------------------------------------------------------------------------|
G|-------------------------------------------------------4--------4--------|
D|-4--------4--------5--------5--------7--------7--------x--------x--------|
A|-x--------x--------x--------x--------x--------x--------2--------2--------|
E|-2--------2--------3--------3--------5--------5--------------------------|

e|-------------------------------------------------|
B|-------------------------------------------------|
G|-------------------------------------------------|
D|4--------4--------5--------5---------7--------7--|
A|x--------x--------x--------x---------x--------x--|
E|2--------2--------3--------3---------5--------5--|

(Guitar Two Outro)
e|----------------------------------------------------------------|
B|----------------------------------------------------------------|
G|-4--4-4-4-4--4--4-4-4-4--------------4--4-4-4-4---7--7-7-7-7----|
D|-x--x-x-x-x--x--x-x-x-x--4--4-4-4-4--x--x-x-x-x---x--x-x-x-x--7-|
A|-2--2-2-2-2--2--2-2-2-2--x--x-x-x-x--2--2-2-2-2---5--5-5-5-5--x-|
E|-------------------------2--2-2-2-2---------------------------5-|

NOTE: Reapeated twice comes in at 2:07.





Comments


Popular Modest Mouse tabs & chords
Perfect Disguise Bass Tabs
3 Inch Horses Two-faced Monsters 1 Tabs
A Diffrent City Tabs
Broke Tabs
Dark Side Of The Universe Tabs
Jesus Christ Was An Only Child 1 Tabs
One Chance Tabs
Sleepwalking 3 Tabs
The View 1 Tabs
Willful Suspension Of Disbelief Tabs


Song lyrics



↑ Back to top | Tablatures and chords are parodies/interpretations of the original songs. You may use it for private study, scholarship, research or language learning purposes only
© 2014 AZChords.com Contact us | Privacy policy | DMCA | Add/correct tabs | Request tabs | Top 50 tabs