» » »

A Diffrent City Tabs (ver.1)

Artists:  A B C D E F G H I J K L M N O P Q R S T U V W X Y Z # 

A Diffrent City Tabs (ver.1)

Modest Mouse
Rating:
0/5 (0 votes)

Hard to play? Try these video lessons and learn fast.
                A DIFFERENT CITY 
 use distortion and chorus

E-----------------------------------------------------------|
B------------7-7-7-7----------------------------------------|
G---------------------------------------6-6-6-6-------------|
D---6-6-8-9-----------9-9-8-8---6-6-8-9----------9-9-8-8----|
A-----------------------------------------------------------|
E-----------------------------------------------------------|

quiet part. played very lightly, sounds like these notes, but it's hard to 
hear the guitar.
                      i'm gonna live...
G---13---9---11---9---13---9---11---9-8-9-8---13---9---11---9---|
D---11---9---9----9---11---9---9----9-9-9-9---11---9---9----9---|

muted, this part is varied with fill ins that would be too tedious to tab 
about, but you can play variations of this.
E-----------------------------------------------------------|
B-----------------------------------------------------------|
G---13--13--13--13--9--9--9--9--8--8--8--8--6--6--6--6--4---|
D---13--13--13--13--9--9--9--9--8--8--8--8--6--6--6--6--4---|
A---11--11--11--11--7--7--7--7--6--6--6--6--4--4--4--4--2---|
E-----------------------------------------------------------|

little solo
G--8-8-8-8-11h8-9h8-11h8-9h8-11h8-9h8-11h8-9h8-8-8-8-8-9-9-9-11-11-11

listen to cd to get order.
            
Hard to play? Try these video lessons and learn fast. | Correct




comments powered by Disqus
↑ Back to top | Tablatures and chords are parodies/interpretations of the original songs. You may use it for private study, scholarship, research or language learning purposes only