» » »

Modest Mouse, 3 Inch Horses Two-faced Monsters Tabs (ver.2)

Artists:  A B C D E F G H I J K L M N O P Q R S T U V W X Y Z # 

3 Inch Horses Two-faced Monsters Tabs (ver.2)

Modest Mouse Tabs
Rating:
0/5 (0 votes)
Hard to play? Try these video lessons and learn fast.
                


Tuning: EADgbe


| /  slide up
| \  slide down
| h  hammer-on
| p  pull-off
| ~  vibrato
| +  harmonic
| x  Mute note


First two Guitars

Now these two guitars are doing alot to. It sounds like one is strumming the g chord and 
other is muting notes.
Please correct me if I'm wrong. Through the song you have to strum with feeling and 
strum syncing with the
(I call the third guitar) third guitar. Also strum heavily to get the guitar on pick 
They do
this until the end of the song where


e|-------------------|
B|--3----------------|
G|--0----------------|
D|--0----------------|
A|--2----------------|
E|--3----------------|


One plays this, finger picked

e|------7------------|
B|-------------------|
G|------7------------|
D|------9------------|
A|-------------------|
E|-------------------|

e|------------7------|
B|-------------------|
G|----7---7----------|
D|--9---9---9--------|
A|-------------------|
E|-------------------|

And the other plays this in variations

e|-------------------|
B|-------------------|
G|-------------------|
D|--9-12-9-12--------|
A|------------10-----|
E|-------------------|




Third Guitar

e|-------------------|
B|-------------------|
G|--4-4-4-4-4--------|
D|-------------------|
A|-------------------|
E|-------------------|


e|-----------------------------------------------------|
B|-----------------------------------------------------|
G|---------4-4-4--------4p-----------------------------|
D|------5--------5-3-5-----3p-5-----5------------------|
A|----2---------------------------2-----2p-2p----------|
E|--3---------------------------3-------------3--------|


clang clang


e|-------------------------------------------|
B|-------------------------------------------|
G|-------------------------------------------|
D|----12----12----12---5---5-----------------|
A|-3/----3/----3/------------2p-2p-----------|
E|-------------------3---3---------3---------|

e|-------------------------------------------------------------------------|
B|-------------------------------------------------------------------------|
G|--4-4-4-----------------------------4p-----------------12-12-12-12-------|
D|----------5--5-------------------------3p---4----------12-12-12-12-------|
A|----------------5b-5b--2--2p-2p-----------2-5--2p-2p---------------------|
E|--------3--3--------------------3--------------------3-------------------|

e|-------------------------------------------------------------------|
B|-------------------------------------------------------------------|
G|--------------------------4-4-4-4-4-------------4-4-4-------12-----|
D|----5---5--5-5--3------5------------3------5--5-------3-----12-----|
A|------------------5h------------------5h----------------5h---------|
E|--3---3--------------3-------------------3--3----------------------|

e|--------------------------------------------------|
B|-------7---4----7-------------7-------------------|
G|--4-4------5--------------------------------------|
D|------------------7-7-7---4-4---7-7b-7---4--------|
A|------------------5-5-5---2-2---5-5b-5---2--------|
E|--------------------------------------------------|


e|----------------------|2x
B|----------------------|
G|--12-12-12--2p-2p-----|
D|--12-12-12--------5---|
A|----------------------|
E|----------------------|

e|---------------------------------------------------|
B|---------------------------------------------------|
G|--12-12-12-12\--12-12-12\----7-4--5b--4--5--4------|
D|--12-12-12-12\--12-12-12\----5-5--7b--5--7--5------|
A|---------------------------------------------------|
E|---------------------------------------------------|

e|-------------------|3x
B|-------------------|
G|-12-12-12-12\------|
D|-12-12-12-12\------|
A|-------------------|
E|-------------------|

e|----------------------------|
B|----------------------------|
G|---------4-4-4-4------------|
D|---3-5-----------3----5-----|
A|-------------------5h-------|
E|----------------------------|

e|-----------------------------------|
B|---------------------------3-------|
G|--12-12-12-----4-4-4-4--4b---4-----|
D|--12-12-12-------------------------|
A|-----------------------------------|
E|-----------------------------------|

e|-----------------------------------------------------------------|
B|-----------------------------------------------------------------|
G|---5-4---5-4--5-4--5-4---3-3-3-5-4-5-4----12-12-12--3-3-3-5-4----|
D|---7-5---7-5--7-5--7-5---------7-5-7-5----12-12-12--------7-5----|
A|-----------------------------------------------------------------|
E|-----------------------------------------------------------------|

e|----------------------------------------------|
B|----------------------------------------------|
G|--7-6-4--4-4-4-4--7-6-4--7-6-4--7-6-4-6b------|
D|----------------------------------------------|
A|----------------------------------------------|
E|----------------------------------------------|

e|------------------------------------------------------|
B|------------------------------------------------------|
G|--7-6-4--7-6-4----7-6-4---5b-4-4----5-4-5-4-5-4-5-4---|
D|---------------4b---------7b-5-5----------------------|
A|------------------------------------------------------|
E|------------------------------------------------------|

e|--------------------------------------------------------------------|
B|--------------------------------------------------------------------|
G|-----------4-2-4-2--5-4-5-4--7-5-7-5--9-7-9-7--11-9-11-9--7p6-5p4---|
D|---4-2-4-2----------------------------------------------------------|
A|--------------------------------------------------------------------|
E|--------------------------------------------------------------------|

e|--------------------------------------------------------------|
B|--------------------------------------------------------------|
G|--11-9-11-9-11-9--9-7-9-7--7-5-7-5--5-4-5-4--4-2-4-2----------|
D|-----------------------------------------------------5--------|
A|--------------------------------------------------------------|
E|--------------------------------------------------------------|

e|-------------------------------------------------------------------------------|
B|-------------------------------------------------------------------------------|
G|---4-2-4-2--5-4-5-4--7-5-7-5--9-7-9-7--11-9-11-9-11-9-11-9-11-9--14--7p6-5p4---|
D|-------------------------------------------------------------------------------|
A|-------------------------------------------------------------------------------|
E|-------------------------------------------------------------------------------|

After this point you can play whatever since the song is ending,  you
 get the basic jest of the notes here^ the ones up there. I'm not even
 going to try to hear it with the song fading out.

e|-----------------------------------------|
B|-----------------------------------------|
G|--9-7-9-7--5-4-5-4--4-2-4-2--------------|
D|----------------------------4-2-4-2------|
A|------------------------------------5----|
E|-----------------------------------------|

Ok that's it for another crazy Modest Mouse song. Oh, I don't know how
they make that clanging sound. Maybe they had a metal acoustic guitar?
Maybe sound effects? Who knows, go practice.
            

comments powered by Disqus
↑ Back to top | Modest Mouse Tabs for 3 Inch Horses Two-faced Monsters. Lyrics for acoustic guitar and electric guitar. Tablatures and chords are parodies/interpretations of the original songs. You may use it for private study, scholarship, research or language learning purposes only