>
 >
8 05

8 05 Guitar Tabs

Moby Grape - 8 05 chords, tabs, tablatures, lyrics

Guitar lessons | Add/correct | Request | Top 50 tabs Artists:  A B C D E F G H I J K L M N O P Q R S T U V W X Y Z 0-9

8 05 Guitar Tabs – Moby Grape

CD, Sheet music, Poster

Do you like 8 05? Share with your friends now
ChordsChords v2TabsUkulele
First of all, credit goes to the original songwriters and the Grape as a band. This is
an amazing song, and my guitar teacher and I have worked out a tab for it based on the
a bit who to play it if you have trouble following
this, you have to excuse me cause it's my first tab ever writing.

Intro:
|--------5------------------7---------------9------10------9h10p9-----------|
|--5---------5--------------7----------/9----------9-------9----------------|
|--5h6----------------5/7--------------/9----------11------9----------------|
|--7------------------7/9--------------------------9------------------------|
|--0------------------------------------------------------------------------|
|-----------------0---------------------------------------------------------|


|-------------------------------------------0-------------------------5-----|
|--12--10--9-----------------------------------0h2p0-----------5------------|
|--------------------------------------1h2---------------------5h6----------|
|--------------7h9p7---------------2------------------2p1------7------------|
|------------------------9/------------------------------------0------------|
|------------------------------0--------------------------------------------|

The verses are really quite simple, with some chord changes which are already posted on
here, and a bassline, and since the Grape have 3 guitarists and a bassist, I've tried to
incorporate the bass part with the chords, but it's definitely up for personal interpratation:

     Bm                E           A          E A        D     C#m  Bm  A
|--2---2----2--2----0----0------0-----0-----0---------2-----2---4---2---0--|
|--3---3----3--3----0----0------2-----2-----2---------3-----3---5---3---2--|
|--4---4----4--4----1----1------2-----2-----2-2-0-----2-----2---6---4---2--|
|--4---4----4--4----2----2------2-----2-----2-2-1-2-0-0-----0---6---4---2--|
|--2---2----2--2----2----2----0-0--0--0-0-0-0-0-2-4-----------4-4-2-2-0-0--|
|---------2-------0-0--0-0--4---------------------------0h2----------------|

Occasionaly on one of the ending chords, particularly the A at the end of each verse,
and the E at the end of the bridge, they'll do something like this:

|--0-------0---------------0----------|
|--2--0h2-----2p0-----0h2-----2p0-----|
|--2---------------2---------------2--|
|--2----------------------------------|
|--0----------------------------------|
|-------------------------------------|

The next verse is exactly the same except with an A7 at the end of it and the rest, as
borrowed from the guy who posted the chords, is like this, with the walking bassline
throughout to add some spice to it:

Bridge:
D                  Bm
Please change your mind
C#m       A
Before my sunshine is gone
                       D
Do you think you could try
                       G
Do you think you could try
                       E
Do you think you could try

Instrumental break:
A     Bm     E     A
////  ////   ////  ////
D     C#m  Bm  A     A7
////  //   //  ////  ////

Repeat bridge

A             Bm
Please understand how I feel
E           A
Until I can prove it to you
              D          C#m
Don't fill my world with rain
E             E7                    A
You know your tears will only bring pain in my heart

   Bm   E
8:05
               A
I guess you're leaving... goodbye





Comments


Popular Moby Grape tabs & chords
8 05 Chords
Naked, If I Want To Chords
Omaha Chords
Sitting By The Window Chords
Sitting By The Window 1 Chords
Seeing Tabs
8 05 Ukulele
Aint That A Shame Ukulele
Hey Grandma Ukulele
Sitting By The Window Ukulele


Song lyrics



↑ Back to top | Tablatures and chords are parodies/interpretations of the original songs. You may use it for private study, scholarship, research or language learning purposes only
© 2014 AZChords.com Contact us | Privacy policy | DMCA | Add/correct tabs | Request tabs | Top 50 tabs